  0
SECTION
  2
HEADER
  9
$ACADVER
  1
AC1015
  9
$ACADMAINTVER
 70
     6
  9
$DWGCODEPAGE
  3
ANSI_1252
  9
$INSBASE
 10
0.0
 20
0.0
 30
0.0
  9
$EXTMIN
 10
0.0
 20
0.0
 30
0.0
  9
$EXTMAX
 10
11.0
 20
8.5
 30
0.0
  9
$LIMMIN
 10
0.0
 20
0.0
  9
$LIMMAX
 10
11.0
 20
8.5
  9
$ORTHOMODE
 70
     0
  9
$REGENMODE
 70
     1
  9
$FILLMODE
 70
     1
  9
$QTEXTMODE
 70
     0
  9
$MIRRTEXT
 70
     1
  9
$LTSCALE
 40
1.0
  9
$ATTMODE
 70
     1
  9
$TEXTSIZE
 40
0.1666666667
  9
$TRACEWID
 40
0.05
  9
$TEXTSTYLE
  7
Standard
  9
$CLAYER
  8
0
  9
$CELTYPE
  6
ByLayer
  9
$CECOLOR
 62
   256
  9
$CELTSCALE
 40
1.0
  9
$DISPSILH
 70
     0
  9
$DIMSCALE
 40
1.0
  9
$DIMASZ
 40
0.09
  9
$DIMEXO
 40
0.05
  9
$DIMDLI
 40
0.38
  9
$DIMRND
 40
0.0
  9
$DIMDLE
 40
0.0
  9
$DIMEXE
 40
0.0625
  9
$DIMTP
 40
0.0
  9
$DIMTM
 40
0.0
  9
$DIMTXT
 40
0.1666666667
  9
$DIMCEN
 40
0.09
  9
$DIMTSZ
 40
0.0
  9
$DIMTOL
 70
     0
  9
$DIMLIM
 70
     0
  9
$DIMTIH
 70
     1
  9
$DIMTOH
 70
     1
  9
$DIMSE1
 70
     0
  9
$DIMSE2
 70
     0
  9
$DIMTAD
 70
     0
  9
$DIMZIN
 70
     0
  9
$DIMBLK
  1

  9
$DIMASO
 70
     1
  9
$DIMSHO
 70
     1
  9
$DIMPOST
  1

  9
$DIMAPOST
  1

  9
$DIMALT
 70
     0
  9
$DIMALTD
 70
     2
  9
$DIMALTF
 40
25.4
  9
$DIMLFAC
 40
1.0
  9
$DIMTOFL
 70
     0
  9
$DIMTVP
 40
0.0
  9
$DIMTIX
 70
     0
  9
$DIMSOXD
 70
     0
  9
$DIMSAH
 70
     0
  9
$DIMBLK1
  1

  9
$DIMBLK2
  1

  9
$DIMSTYLE
  2
Standard
  9
$DIMCLRD
 70
     0
  9
$DIMCLRE
 70
     0
  9
$DIMCLRT
 70
     0
  9
$DIMTFAC
 40
1.0
  9
$DIMGAP
 40
0.06
  9
$DIMJUST
 70
     0
  9
$DIMSD1
 70
     0
  9
$DIMSD2
 70
     0
  9
$DIMTOLJ
 70
     1
  9
$DIMTZIN
 70
     0
  9
$DIMALTZ
 70
     0
  9
$DIMALTTZ
 70
     0
  9
$DIMUPT
 70
     0
  9
$DIMDEC
 70
     2
  9
$DIMTDEC
 70
     2
  9
$DIMALTU
 70
     2
  9
$DIMALTTD
 70
     2
  9
$DIMTXSTY
  7
Standard
  9
$DIMAUNIT
 70
     0
  9
$DIMADEC
 70
     0
  9
$DIMALTRND
 40
0.0
  9
$DIMAZIN
 70
     0
  9
$DIMDSEP
 70
    46
  9
$DIMATFIT
 70
     3
  9
$DIMFRAC
 70
     0
  9
$DIMLDRBLK
  1

  9
$DIMLUNIT
 70
     2
  9
$DIMLWD
 70
    -2
  9
$DIMLWE
 70
    -2
  9
$DIMTMOVE
 70
     0
  9
$LUNITS
 70
     2
  9
$LUPREC
 70
     2
  9
$SKETCHINC
 40
0.1
  9
$FILLETRAD
 40
0.5
  9
$AUNITS
 70
     0
  9
$AUPREC
 70
     0
  9
$MENU
  1
.
  9
$ELEVATION
 40
0.0
  9
$PELEVATION
 40
0.0
  9
$THICKNESS
 40
0.0
  9
$LIMCHECK
 70
     0
  9
$CHAMFERA
 40
0.0
  9
$CHAMFERB
 40
0.0
  9
$CHAMFERC
 40
0.0
  9
$CHAMFERD
 40
0.0
  9
$SKPOLY
 70
     0
  9
$TDCREATE
 40
2456891.463760058
  9
$TDUCREATE
 40
2456891.672093391
  9
$TDUPDATE
 40
2456891.463760486
  9
$TDUUPDATE
 40
2456891.672093819
  9
$TDINDWG
 40
0.0000000116
  9
$TDUSRTIMER
 40
0.0000000116
  9
$USRTIMER
 70
     1
  9
$ANGBASE
 50
0.0
  9
$ANGDIR
 70
     0
  9
$PDMODE
 70
     0
  9
$PDSIZE
 40
-1.0
  9
$PLINEWID
 40
0.0
  9
$SPLFRAME
 70
     0
  9
$SPLINETYPE
 70
     6
  9
$SPLINESEGS
 70
     8
  9
$HANDSEED
  5
336
  9
$SURFTAB1
 70
     6
  9
$SURFTAB2
 70
     6
  9
$SURFTYPE
 70
     6
  9
$SURFU
 70
     6
  9
$SURFV
 70
     6
  9
$UCSBASE
  2

  9
$UCSNAME
  2

  9
$UCSORG
 10
0.0
 20
0.0
 30
0.0
  9
$UCSXDIR
 10
1.0
 20
0.0
 30
0.0
  9
$UCSYDIR
 10
0.0
 20
1.0
 30
0.0
  9
$UCSORTHOREF
  2

  9
$UCSORTHOVIEW
 70
     0
  9
$UCSORGTOP
 10
0.0
 20
0.0
 30
0.0
  9
$UCSORGBOTTOM
 10
0.0
 20
0.0
 30
0.0
  9
$UCSORGLEFT
 10
0.0
 20
0.0
 30
0.0
  9
$UCSORGRIGHT
 10
0.0
 20
0.0
 30
0.0
  9
$UCSORGFRONT
 10
0.0
 20
0.0
 30
0.0
  9
$UCSORGBACK
 10
0.0
 20
0.0
 30
0.0
  9
$PUCSBASE
  2

  9
$PUCSNAME
  2

  9
$PUCSORG
 10
0.0
 20
0.0
 30
0.0
  9
$PUCSXDIR
 10
1.0
 20
0.0
 30
0.0
  9
$PUCSYDIR
 10
0.0
 20
1.0
 30
0.0
  9
$PUCSORTHOREF
  2

  9
$PUCSORTHOVIEW
 70
     0
  9
$PUCSORGTOP
 10
0.0
 20
0.0
 30
0.0
  9
$PUCSORGBOTTOM
 10
0.0
 20
0.0
 30
0.0
  9
$PUCSORGLEFT
 10
0.0
 20
0.0
 30
0.0
  9
$PUCSORGRIGHT
 10
0.0
 20
0.0
 30
0.0
  9
$PUCSORGFRONT
 10
0.0
 20
0.0
 30
0.0
  9
$PUCSORGBACK
 10
0.0
 20
0.0
 30
0.0
  9
$USERI1
 70
     0
  9
$USERI2
 70
     0
  9
$USERI3
 70
     0
  9
$USERI4
 70
     0
  9
$USERI5
 70
     0
  9
$USERR1
 40
0.0
  9
$USERR2
 40
0.0
  9
$USERR3
 40
0.0
  9
$USERR4
 40
0.0
  9
$USERR5
 40
0.0
  9
$WORLDVIEW
 70
     1
  9
$SHADEDGE
 70
     3
  9
$SHADEDIF
 70
    70
  9
$TILEMODE
 70
     1
  9
$MAXACTVP
 70
    64
  9
$PINSBASE
 10
0.0
 20
0.0
 30
0.0
  9
$PLIMCHECK
 70
     0
  9
$PEXTMIN
 10
1.0000000000E+20
 20
1.0000000000E+20
 30
1.0000000000E+20
  9
$PEXTMAX
 10
-1.0000000000E+20
 20
-1.0000000000E+20
 30
-1.0000000000E+20
  9
$PLIMMIN
 10
0.0
 20
0.0
  9
$PLIMMAX
 10
12.0
 20
9.0
  9
$UNITMODE
 70
     0
  9
$VISRETAIN
 70
     1
  9
$PLINEGEN
 70
     0
  9
$PSLTSCALE
 70
     1
  9
$TREEDEPTH
 70
  3020
  9
$CMLSTYLE
  2
Standard
  9
$CMLJUST
 70
     0
  9
$CMLSCALE
 40
1.0
  9
$PROXYGRAPHICS
 70
     1
  9
$MEASUREMENT
 70
     0
  9
$CELWEIGHT
370
    -1
  9
$ENDCAPS
280
     0
  9
$JOINSTYLE
280
     0
  9
$LWDISPLAY
290
     1
  9
$INSUNITS
 70
     1
  9
$HYPERLINKBASE
  1

  9
$STYLESHEET
  1

  9
$XEDIT
290
     1
  9
$CEPSNTYPE
380
     0
  9
$PSTYLEMODE
290
     1
  9
$FINGERPRINTGUID
  2
{C89A1F02-E626-49FC-B17B-D0F0F7513880}
  9
$VERSIONGUID
  2
{FAEB1C32-E019-11D5-929B-00C0DF256EC4}
  9
$EXTNAMES
290
     1
  9
$PSVPSCALE
 40
0.0
  9
$OLESTARTUP
290
     0
  0
ENDSEC
  0
SECTION
  2
CLASSES
  0
CLASS
  1
ACDBDICTIONARYWDFLT
  2
AcDbDictionaryWithDefault
  3
ObjectDBX Classes
 90
        0
280
     0
281
     0
  0
CLASS
  1
VISUALSTYLE
  2
AcDbVisualStyle
  3
ObjectDBX Classes
 90
     4095
280
     0
281
     0
  0
CLASS
  1
MATERIAL
  2
AcDbMaterial
  3
ObjectDBX Classes
 90
     1153
280
     0
281
     0
  0
CLASS
  1
SCALE
  2
AcDbScale
  3
ObjectDBX Classes
 90
     1153
280
     0
281
     0
  0
CLASS
  1
SUN
  2
AcDbSun
  3
SCENEOE
 90
     1153
280
     0
281
     0
  0
CLASS
  1
ACDBPLACEHOLDER
  2
AcDbPlaceHolder
  3
ObjectDBX Classes
 90
        0
280
     0
281
     0
  0
CLASS
  1
LAYOUT
  2
AcDbLayout
  3
ObjectDBX Classes
 90
        0
280
     0
281
     0
  0
ENDSEC
  0
SECTION
  2
TABLES
  0
TABLE
  2
VPORT
  5
8
330
0
100
AcDbSymbolTable
 70
     1
  0
VPORT
  5
29
330
8
100
AcDbSymbolTableRecord
100
AcDbViewportTableRecord
  2
*Active
 70
     0
 10
0.0
 20
0.0
 11
1.0
 21
1.0
 12
5.5
 22
4.25
 13
0.0
 23
0.0
 14
0.5
 24
0.5
 15
0.5
 25
0.5
 16
0.0
 26
0.0
 36
1.0
 17
0.0
 27
0.0
 37
0.0
 40
8.5
 41
1.2941176471
 42
50.0
 43
0.0
 44
0.0
 50
0.0
 51
0.0
 71
     0
 72
  2000
 73
     1
 74
     3
 75
     0
 76
     0
 77
     0
 78
     0
281
     0
 65
     1
110
0.0
120
0.0
130
0.0
111
1.0
121
0.0
131
0.0
112
0.0
122
1.0
132
0.0
 79
     0
146
0.0
  0
ENDTAB
  0
TABLE
  2
LTYPE
  5
5
330
0
100
AcDbSymbolTable
 70
     6
  0
LTYPE
  5
14
330
5
100
AcDbSymbolTableRecord
100
AcDbLinetypeTableRecord
  2
ByBlock
 70
     0
  3

 72
    65
 73
     0
 40
0.0
  0
LTYPE
  5
15
330
5
100
AcDbSymbolTableRecord
100
AcDbLinetypeTableRecord
  2
ByLayer
 70
     0
  3

 72
    65
 73
     0
 40
0.0
  0
LTYPE
  5
16
330
5
100
AcDbSymbolTableRecord
100
AcDbLinetypeTableRecord
  2
Continuous
 70
     0
  3
Solid line
 72
    65
 73
     0
 40
0.0
  0
LTYPE
  5
6A
330
5
100
AcDbSymbolTableRecord
100
AcDbLinetypeTableRecord
  2
HIDDEN
 70
     0
  3
Hidden __ __ __ __ __ __ __ __ __ __ __ __ __ __
 72
    65
 73
     2
 40
0.075
 49
0.05
 74
     0
 49
-0.025
 74
     0
  0
LTYPE
  5
6B
330
5
100
AcDbSymbolTableRecord
100
AcDbLinetypeTableRecord
  2
PHANTOM
 70
     0
  3
Phantom ______  __  __  ______  __  __  ______
 72
    65
 73
     6
 40
0.5
 49
0.25
 74
     0
 49
-0.05
 74
     0
 49
0.05
 74
     0
 49
-0.05
 74
     0
 49
0.05
 74
     0
 49
-0.05
 74
     0
  0
LTYPE
  5
6C
330
5
100
AcDbSymbolTableRecord
100
AcDbLinetypeTableRecord
  2
CENTER
 70
     0
  3
Center ____ _ ____ _ ____ _ ____ _ ____ _ ____
 72
    65
 73
     4
 40
0.4
 49
0.25
 74
     0
 49
-0.05
 74
     0
 49
0.05
 74
     0
 49
-0.05
 74
     0
  0
LTYPE
  5
6D
330
5
100
AcDbSymbolTableRecord
100
AcDbLinetypeTableRecord
  2
CENTERX2
 70
     0
  3
Center (2x) ________  __  ________  __  _____
 72
    65
 73
     4
 40
0.8
 49
0.5
 74
     0
 49
-0.1
 74
     0
 49
0.1
 74
     0
 49
-0.1
 74
     0
  0
LTYPE
  5
6E
330
5
100
AcDbSymbolTableRecord
100
AcDbLinetypeTableRecord
  2
DOT2
 70
     0
  3
Dot (.5x) ........................................
 72
    65
 73
     2
 40
0.025
 49
0.0
 74
     0
 49
-0.025
 74
     0
  0
ENDTAB
  0
TABLE
  2
LAYER
  5
2
330
0
100
AcDbSymbolTable
 70
     2
  0
LAYER
  5
10
330
2
100
AcDbSymbolTableRecord
100
AcDbLayerTableRecord
  2
0
 70
     0
 62
     7
  6
Continuous
370
    -3
390
F
  0
LAYER
  5
6F
330
2
100
AcDbSymbolTableRecord
100
AcDbLayerTableRecord
  2
FORMAT
 70
     0
 62
     7
  6
Continuous
370
    -3
390
F
  0
ENDTAB
  0
TABLE
  2
STYLE
  5
3
330
0
100
AcDbSymbolTable
 70
     2
  0
STYLE
  5
11
330
3
100
AcDbSymbolTableRecord
100
AcDbTextStyleTableRecord
  2
Standard
 70
     0
 40
0.0
 41
1.0
 50
0.0
 71
     0
 42
0.1666666667
  3
txt
  4

  0
STYLE
  5
334
330
3
100
AcDbSymbolTableRecord
100
AcDbTextStyleTableRecord
  2
SLDTEXTSTYLE0
 70
     0
 40
0.0
 41
0.605
 50
0.0
 71
     0
 42
0.1666666667
  3
TXT
  4

  0
ENDTAB
  0
TABLE
  2
VIEW
  5
6
330
0
100
AcDbSymbolTable
 70
     0
  0
ENDTAB
  0
TABLE
  2
UCS
  5
7
330
0
100
AcDbSymbolTable
 70
     0
  0
ENDTAB
  0
TABLE
  2
APPID
  5
9
330
0
100
AcDbSymbolTable
 70
     1
  0
APPID
  5
12
330
9
100
AcDbSymbolTableRecord
100
AcDbRegAppTableRecord
  2
ACAD
 70
     0
  0
ENDTAB
  0
TABLE
  2
DIMSTYLE
  5
A
330
0
100
AcDbSymbolTable
 70
     1
100
AcDbDimStyleTable
  0
DIMSTYLE
105
27
330
A
100
AcDbSymbolTableRecord
100
AcDbDimStyleTableRecord
  2
Standard
 70
     0
178
     0
340
11
  0
ENDTAB
  0
TABLE
  2
BLOCK_RECORD
  5
1
330
0
100
AcDbSymbolTable
 70
     1
  0
BLOCK_RECORD
  5
1F
330
1
100
AcDbSymbolTableRecord
100
AcDbBlockTableRecord
  2
*Model_Space
340
22
  0
BLOCK_RECORD
  5
1B
330
1
100
AcDbSymbolTableRecord
100
AcDbBlockTableRecord
  2
*Paper_Space
340
1E
  0
BLOCK_RECORD
  5
23
330
1
100
AcDbSymbolTableRecord
100
AcDbBlockTableRecord
  2
*Paper_Space0
340
26
  0
ENDTAB
  0
ENDSEC
  0
SECTION
  2
BLOCKS
  0
BLOCK
  5
20
330
1F
100
AcDbEntity
  8
0
100
AcDbBlockBegin
  2
*Model_Space
 70
     0
 10
0.0
 20
0.0
 30
0.0
  3
*Model_Space
  1
*Model_Space
  0
ENDBLK
  5
21
330
1F
100
AcDbEntity
  8
0
100
AcDbBlockEnd
  0
BLOCK
  5
1C
330
1B
100
AcDbEntity
 67
     1
  8
0
100
AcDbBlockBegin
  2
*Paper_Space
 70
     0
 10
0.0
 20
0.0
 30
0.0
  3
*Paper_Space
  1
*Paper_Space
  0
ENDBLK
  5
1D
330
1B
100
AcDbEntity
 67
     1
  8
0
100
AcDbBlockEnd
  0
BLOCK
  5
24
330
23
100
AcDbEntity
  8
0
100
AcDbBlockBegin
  2
*Paper_Space0
 70
     0
 10
0.0
 20
0.0
 30
0.0
  3
*Paper_Space0
  1
*Paper_Space0
  0
ENDBLK
  5
25
330
23
100
AcDbEntity
  8
0
100
AcDbBlockEnd
  0
ENDSEC
  0
SECTION
  2
ENTITIES
  0
LINE
  5
70
330
1F
100
AcDbEntity
  8
0
  6
Continuous
 62
     7
370
    30
100
AcDbLine
 10
6.1518617705
 20
6.4179561955
 30
0.0
 11
6.1518617705
 21
5.8512984749
 31
0.0
  0
LINE
  5
71
330
1F
100
AcDbEntity
  8
0
  6
Continuous
 62
     7
370
    30
100
AcDbLine
 10
6.1518617705
 20
5.8032572632
 30
0.0
 11
6.1518617705
 21
5.7929562489
 31
0.0
  0
LINE
  5
72
330
1F
100
AcDbEntity
  8
0
  6
Continuous
 62
     7
370
    30
100
AcDbLine
 10
6.1518617705
 20
6.4179561955
 30
0.0
 11
6.0888617583
 21
6.4179561955
 31
0.0
  0
LINE
  5
73
330
1F
100
AcDbEntity
  8
0
  6
Continuous
 62
     7
370
    30
100
AcDbLine
 10
7.5388617811
 20
6.4079562843
 30
0.0
 11
7.5388617811
 21
6.4179561955
 31
0.0
  0
LINE
  5
74
330
1F
100
AcDbEntity
  8
0
  6
Continuous
 62
     7
370
    30
100
AcDbLine
 10
7.4758616955
 20
6.4179561955
 30
0.0
 11
7.5388617811
 21
6.4179561955
 31
0.0
  0
LINE
  5
75
330
1F
100
AcDbEntity
  8
0
  6
Continuous
 62
     7
370
    30
100
AcDbLine
 10
7.4758616955
 20
6.4179561955
 30
0.0
 11
7.4758616955
 21
5.8512984749
 31
0.0
  0
LINE
  5
76
330
1F
100
AcDbEntity
  8
0
  6
Continuous
 62
     7
370
    30
100
AcDbLine
 10
6.1668617839
 20
6.4179561955
 30
0.0
 11
6.1518617705
 21
6.4179561955
 31
0.0
  0
LINE
  5
77
330
1F
100
AcDbEntity
  8
0
  6
Continuous
 62
     7
370
    30
100
AcDbLine
 10
6.1668617839
 20
5.9179562382
 30
0.0
 11
6.1668617839
 21
6.4179561955
 31
0.0
  0
LINE
  5
78
330
1F
100
AcDbEntity
  8
0
  6
Continuous
 62
     7
370
    30
100
AcDbLine
 10
6.1518617705
 20
5.9179562382
 30
0.0
 11
6.1668617839
 21
5.9179562382
 31
0.0
  0
LINE
  5
79
330
1F
100
AcDbEntity
  8
0
  6
Continuous
 62
     7
370
    30
100
AcDbLine
 10
7.4608616822
 20
6.4179561955
 30
0.0
 11
7.4608616822
 21
5.9179562382
 31
0.0
  0
LINE
  5
7A
330
1F
100
AcDbEntity
  8
0
  6
Continuous
 62
     7
370
    30
100
AcDbLine
 10
7.4758616955
 20
6.4179561955
 30
0.0
 11
7.4608616822
 21
6.4179561955
 31
0.0
  0
LINE
  5
7B
330
1F
100
AcDbEntity
  8
0
  6
Continuous
 62
     7
370
    30
100
AcDbLine
 10
7.4608616822
 20
5.9179562382
 30
0.0
 11
7.4758616955
 21
5.9179562382
 31
0.0
  0
LINE
  5
7C
330
1F
100
AcDbEntity
  8
0
  6
Continuous
 62
     7
370
    30
100
AcDbLine
 10
7.4078618011
 20
6.4339561707
 30
0.0
 11
7.4078618011
 21
6.5119562696
 31
0.0
  0
LINE
  5
7D
330
1F
100
AcDbEntity
  8
0
  6
Continuous
 62
     7
370
    30
100
AcDbLine
 10
6.2198617383
 20
6.4339561707
 30
0.0
 11
7.4078618011
 21
6.4339561707
 31
0.0
  0
LINE
  5
7E
330
1F
100
AcDbEntity
  8
0
  6
Continuous
 62
     7
370
    30
100
AcDbLine
 10
6.2198617383
 20
6.5119562696
 30
0.0
 11
6.2198617383
 21
6.4339561707
 31
0.0
  0
LINE
  5
7F
330
1F
100
AcDbEntity
  8
0
  6
Continuous
 62
     7
370
    30
100
AcDbLine
 10
6.2198617383
 20
6.5119562696
 30
0.0
 11
7.4078618011
 21
6.5119562696
 31
0.0
  0
LINE
  5
80
330
1F
100
AcDbEntity
  8
0
  6
Continuous
 62
     7
370
    30
100
AcDbLine
 10
7.4078618011
 20
6.4179561955
 30
0.0
 11
7.4608616822
 21
6.4179561955
 31
0.0
  0
LINE
  5
81
330
1F
100
AcDbEntity
  8
0
  6
Continuous
 62
     7
370
    30
100
AcDbLine
 10
7.4078618011
 20
6.4179561955
 30
0.0
 11
7.4078618011
 21
6.4339561707
 31
0.0
  0
LINE
  5
82
330
1F
100
AcDbEntity
  8
0
  6
Continuous
 62
     7
370
    30
100
AcDbLine
 10
6.2198617383
 20
6.4339561707
 30
0.0
 11
6.2198617383
 21
6.4179561955
 31
0.0
  0
LINE
  5
83
330
1F
100
AcDbEntity
  8
0
  6
Continuous
 62
     7
370
    30
100
AcDbLine
 10
7.4608616822
 20
5.9179562382
 30
0.0
 11
6.9281017566
 21
5.9179562382
 31
0.0
  0
LINE
  5
84
330
1F
100
AcDbEntity
  8
0
  6
Continuous
 62
     7
370
    30
100
AcDbLine
 10
6.911137606
 20
5.9179562382
 30
0.0
 11
6.7165857868
 21
5.9179562382
 31
0.0
  0
LINE
  5
85
330
1F
100
AcDbEntity
  8
0
  6
Continuous
 62
     7
370
    30
100
AcDbLine
 10
6.6996216361
 20
5.9179562382
 30
0.0
 11
6.1668617839
 21
5.9179562382
 31
0.0
  0
LINE
  5
86
330
1F
100
AcDbEntity
  8
0
  6
Continuous
 62
     7
370
    30
100
AcDbLine
 10
6.1668617839
 20
6.4179561955
 30
0.0
 11
6.2198617383
 21
6.4179561955
 31
0.0
  0
LINE
  5
87
330
1F
100
AcDbEntity
  8
0
  6
Continuous
 62
     7
370
    30
100
AcDbLine
 10
6.563861791
 20
5.9179562382
 30
0.0
 11
6.563861791
 21
5.8839562176
 31
0.0
  0
LINE
  5
88
330
1F
100
AcDbEntity
  8
0
  6
Continuous
 62
     7
370
    30
100
AcDbLine
 10
7.0638617483
 20
5.8839562176
 30
0.0
 11
7.0638617483
 21
5.9179562382
 31
0.0
  0
LINE
  5
89
330
1F
100
AcDbEntity
  8
0
  6
Continuous
 62
     7
370
    30
100
AcDbLine
 10
7.0638617483
 20
5.805956192
 30
0.0
 11
7.0018617712
 21
5.805956192
 31
0.0
  0
LINE
  5
8A
330
1F
100
AcDbEntity
  8
0
  6
Continuous
 62
     7
370
    30
100
AcDbLine
 10
6.8874315598
 20
5.805956192
 30
0.0
 11
6.7229809662
 21
5.805956192
 31
0.0
  0
LINE
  5
8B
330
1F
100
AcDbEntity
  8
0
  6
Continuous
 62
     7
370
    30
100
AcDbLine
 10
6.6258617681
 20
5.805956192
 30
0.0
 11
6.563861791
 21
5.805956192
 31
0.0
  0
LINE
  5
8C
330
1F
100
AcDbEntity
  8
0
  6
Continuous
 62
     7
370
    30
100
AcDbLine
 10
7.0638617483
 20
5.8839562176
 30
0.0
 11
7.0638617483
 21
5.8601189063
 31
0.0
  0
LINE
  5
8D
330
1F
100
AcDbEntity
  8
0
  6
Continuous
 62
     7
370
    30
100
AcDbLine
 10
7.0638617483
 20
5.8470041245
 30
0.0
 11
7.0638617483
 21
5.805956192
 31
0.0
  0
LINE
  5
8E
330
1F
100
AcDbEntity
  8
0
  6
Continuous
 62
     7
370
    30
100
AcDbLine
 10
6.563861791
 20
5.805956192
 30
0.0
 11
6.563861791
 21
5.8470041245
 31
0.0
  0
LINE
  5
8F
330
1F
100
AcDbEntity
  8
0
  6
Continuous
 62
     7
370
    30
100
AcDbLine
 10
6.563861791
 20
5.8601189063
 30
0.0
 11
6.563861791
 21
5.8839562176
 31
0.0
  0
LINE
  5
90
330
1F
100
AcDbEntity
  8
0
  6
Continuous
 62
     7
370
    30
100
AcDbLine
 10
5.9758617503
 20
6.4179561955
 30
0.0
 11
5.9758617503
 21
5.8512984749
 31
0.0
  0
LINE
  5
91
330
1F
100
AcDbEntity
  8
0
  6
Continuous
 62
     7
370
    30
100
AcDbLine
 10
5.9758617503
 20
5.8032572632
 30
0.0
 11
5.9758617503
 21
5.7929562489
 31
0.0
  0
LINE
  5
92
330
1F
100
AcDbEntity
  8
0
  6
Continuous
 62
     7
370
    30
100
AcDbLine
 10
5.9758617503
 20
6.4179561955
 30
0.0
 11
6.0388617626
 21
6.4179561955
 31
0.0
  0
LINE
  5
93
330
1F
100
AcDbEntity
  8
0
  6
Continuous
 62
     7
370
    30
100
AcDbLine
 10
4.651861752
 20
6.4179561955
 30
0.0
 11
4.5888617397
 21
6.4179561955
 31
0.0
  0
LINE
  5
94
330
1F
100
AcDbEntity
  8
0
  6
Continuous
 62
     7
370
    30
100
AcDbLine
 10
4.651861752
 20
6.4179561955
 30
0.0
 11
4.651861752
 21
5.8512984749
 31
0.0
  0
LINE
  5
95
330
1F
100
AcDbEntity
  8
0
  6
Continuous
 62
     7
370
    30
100
AcDbLine
 10
4.651861752
 20
5.8032572632
 30
0.0
 11
4.651861752
 21
5.7929562489
 31
0.0
  0
LINE
  5
96
330
1F
100
AcDbEntity
  8
0
  6
Continuous
 62
     7
370
    30
100
AcDbLine
 10
4.6668617654
 20
6.4179561955
 30
0.0
 11
4.651861752
 21
6.4179561955
 31
0.0
  0
LINE
  5
97
330
1F
100
AcDbEntity
  8
0
  6
Continuous
 62
     7
370
    30
100
AcDbLine
 10
4.6668617654
 20
5.9179562382
 30
0.0
 11
4.6668617654
 21
6.4179561955
 31
0.0
  0
LINE
  5
98
330
1F
100
AcDbEntity
  8
0
  6
Continuous
 62
     7
370
    30
100
AcDbLine
 10
4.651861752
 20
5.9179562382
 30
0.0
 11
4.6668617654
 21
5.9179562382
 31
0.0
  0
LINE
  5
99
330
1F
100
AcDbEntity
  8
0
  6
Continuous
 62
     7
370
    30
100
AcDbLine
 10
5.960861737
 20
6.4179561955
 30
0.0
 11
5.960861737
 21
5.9179562382
 31
0.0
  0
LINE
  5
9A
330
1F
100
AcDbEntity
  8
0
  6
Continuous
 62
     7
370
    30
100
AcDbLine
 10
5.960861737
 20
5.9179562382
 30
0.0
 11
5.9758617503
 21
5.9179562382
 31
0.0
  0
LINE
  5
9B
330
1F
100
AcDbEntity
  8
0
  6
Continuous
 62
     7
370
    30
100
AcDbLine
 10
5.9758617503
 20
6.4179561955
 30
0.0
 11
5.960861737
 21
6.4179561955
 31
0.0
  0
LINE
  5
9C
330
1F
100
AcDbEntity
  8
0
  6
Continuous
 62
     7
370
    30
100
AcDbLine
 10
5.960861737
 20
5.9179562382
 30
0.0
 11
5.4281018206
 21
5.9179562382
 31
0.0
  0
LINE
  5
9D
330
1F
100
AcDbEntity
  8
0
  6
Continuous
 62
     7
370
    30
100
AcDbLine
 10
5.4111376607
 20
5.9179562382
 30
0.0
 11
5.2165858416
 21
5.9179562382
 31
0.0
  0
LINE
  5
9E
330
1F
100
AcDbEntity
  8
0
  6
Continuous
 62
     7
370
    30
100
AcDbLine
 10
5.1996216817
 20
5.9179562382
 30
0.0
 11
4.6668617654
 21
5.9179562382
 31
0.0
  0
LINE
  5
9F
330
1F
100
AcDbEntity
  8
0
  6
Continuous
 62
     7
370
    30
100
AcDbLine
 10
4.6668617654
 20
6.4179561955
 30
0.0
 11
4.7198617564
 21
6.4179561955
 31
0.0
  0
LINE
  5
A0
330
1F
100
AcDbEntity
  8
0
  6
Continuous
 62
     7
370
    30
100
AcDbLine
 10
4.7198617564
 20
6.4339561707
 30
0.0
 11
5.9078617459
 21
6.4339561707
 31
0.0
  0
LINE
  5
A1
330
1F
100
AcDbEntity
  8
0
  6
Continuous
 62
     7
370
    30
100
AcDbLine
 10
5.9078617459
 20
6.4179561955
 30
0.0
 11
5.9078617459
 21
6.4339561707
 31
0.0
  0
LINE
  5
A2
330
1F
100
AcDbEntity
  8
0
  6
Continuous
 62
     7
370
    30
100
AcDbLine
 10
5.9078617459
 20
6.4179561955
 30
0.0
 11
5.960861737
 21
6.4179561955
 31
0.0
  0
LINE
  5
A3
330
1F
100
AcDbEntity
  8
0
  6
Continuous
 62
     7
370
    30
100
AcDbLine
 10
4.7198617564
 20
6.4339561707
 30
0.0
 11
4.7198617564
 21
6.4179561955
 31
0.0
  0
LINE
  5
A4
330
1F
100
AcDbEntity
  8
0
  6
Continuous
 62
     7
370
    30
100
AcDbLine
 10
4.7198617564
 20
6.5119562696
 30
0.0
 11
5.9078617459
 21
6.5119562696
 31
0.0
  0
LINE
  5
A5
330
1F
100
AcDbEntity
  8
0
  6
Continuous
 62
     7
370
    30
100
AcDbLine
 10
4.7198617564
 20
6.5119562696
 30
0.0
 11
4.7198617564
 21
6.4339561707
 31
0.0
  0
LINE
  5
A6
330
1F
100
AcDbEntity
  8
0
  6
Continuous
 62
     7
370
    30
100
AcDbLine
 10
5.9078617459
 20
6.4339561707
 30
0.0
 11
5.9078617459
 21
6.5119562696
 31
0.0
  0
LINE
  5
A7
330
1F
100
AcDbEntity
  8
0
  6
Continuous
 62
     7
370
    30
100
AcDbLine
 10
5.5638617481
 20
5.8839562176
 30
0.0
 11
5.5638617481
 21
5.9179562382
 31
0.0
  0
LINE
  5
A8
330
1F
100
AcDbEntity
  8
0
  6
Continuous
 62
     7
370
    30
100
AcDbLine
 10
5.0638617542
 20
5.9179562382
 30
0.0
 11
5.0638617542
 21
5.8839562176
 31
0.0
  0
LINE
  5
A9
330
1F
100
AcDbEntity
  8
0
  6
Continuous
 62
     7
370
    30
100
AcDbLine
 10
5.5638617481
 20
5.8839562176
 30
0.0
 11
5.5638617481
 21
5.8601189063
 31
0.0
  0
LINE
  5
AA
330
1F
100
AcDbEntity
  8
0
  6
Continuous
 62
     7
370
    30
100
AcDbLine
 10
5.5638617481
 20
5.8470041245
 30
0.0
 11
5.5638617481
 21
5.805956192
 31
0.0
  0
LINE
  5
AB
330
1F
100
AcDbEntity
  8
0
  6
Continuous
 62
     7
370
    30
100
AcDbLine
 10
5.5638617481
 20
5.805956192
 30
0.0
 11
5.5018617527
 21
5.805956192
 31
0.0
  0
LINE
  5
AC
330
1F
100
AcDbEntity
  8
0
  6
Continuous
 62
     7
370
    30
100
AcDbLine
 10
5.3874315688
 20
5.805956192
 30
0.0
 11
5.2229810118
 21
5.805956192
 31
0.0
  0
LINE
  5
AD
330
1F
100
AcDbEntity
  8
0
  6
Continuous
 62
     7
370
    30
100
AcDbLine
 10
5.1258617496
 20
5.805956192
 30
0.0
 11
5.0638617542
 21
5.805956192
 31
0.0
  0
LINE
  5
AE
330
1F
100
AcDbEntity
  8
0
  6
Continuous
 62
     7
370
    30
100
AcDbLine
 10
5.0638617542
 20
5.805956192
 30
0.0
 11
5.0638617542
 21
5.8470041245
 31
0.0
  0
LINE
  5
AF
330
1F
100
AcDbEntity
  8
0
  6
Continuous
 62
     7
370
    30
100
AcDbLine
 10
5.0638617542
 20
5.8601189063
 30
0.0
 11
5.0638617542
 21
5.8839562176
 31
0.0
  0
LINE
  5
B0
330
1F
100
AcDbEntity
  8
0
  6
Continuous
 62
     7
370
    30
100
AcDbLine
 10
4.4758617318
 20
6.4179561955
 30
0.0
 11
4.4758617318
 21
5.8512984749
 31
0.0
  0
LINE
  5
B1
330
1F
100
AcDbEntity
  8
0
  6
Continuous
 62
     7
370
    30
100
AcDbLine
 10
4.4758617318
 20
5.8032572632
 30
0.0
 11
4.4758617318
 21
5.7929562489
 31
0.0
  0
LINE
  5
B2
330
1F
100
AcDbEntity
  8
0
  6
Continuous
 62
     7
370
    30
100
AcDbLine
 10
4.4758617318
 20
6.4179561955
 30
0.0
 11
4.538861744
 21
6.4179561955
 31
0.0
  0
LINE
  5
B3
330
1F
100
AcDbEntity
  8
0
  6
Continuous
 62
     7
370
    30
100
AcDbLine
 10
3.1518618068
 20
6.4179561955
 30
0.0
 11
3.0888617212
 21
6.4179561955
 31
0.0
  0
LINE
  5
B4
330
1F
100
AcDbEntity
  8
0
  6
Continuous
 62
     7
370
    30
100
AcDbLine
 10
3.1518618068
 20
6.4179561955
 30
0.0
 11
3.1518618068
 21
5.8512984749
 31
0.0
  0
LINE
  5
B5
330
1F
100
AcDbEntity
  8
0
  6
Continuous
 62
     7
370
    30
100
AcDbLine
 10
3.0888617212
 20
6.4079562843
 30
0.0
 11
3.0888617212
 21
6.4179561955
 31
0.0
  0
LINE
  5
B6
330
1F
100
AcDbEntity
  8
0
  6
Continuous
 62
     7
370
    30
100
AcDbLine
 10
3.1668618201
 20
6.4179561955
 30
0.0
 11
3.1518618068
 21
6.4179561955
 31
0.0
  0
LINE
  5
B7
330
1F
100
AcDbEntity
  8
0
  6
Continuous
 62
     7
370
    30
100
AcDbLine
 10
3.1668618201
 20
5.9179562382
 30
0.0
 11
3.1668618201
 21
6.4179561955
 31
0.0
  0
LINE
  5
B8
330
1F
100
AcDbEntity
  8
0
  6
Continuous
 62
     7
370
    30
100
AcDbLine
 10
3.1518618068
 20
5.9179562382
 30
0.0
 11
3.1668618201
 21
5.9179562382
 31
0.0
  0
LINE
  5
B9
330
1F
100
AcDbEntity
  8
0
  6
Continuous
 62
     7
370
    30
100
AcDbLine
 10
4.4608617184
 20
6.4179561955
 30
0.0
 11
4.4608617184
 21
5.9179562382
 31
0.0
  0
LINE
  5
BA
330
1F
100
AcDbEntity
  8
0
  6
Continuous
 62
     7
370
    30
100
AcDbLine
 10
4.4608617184
 20
5.9179562382
 30
0.0
 11
4.4758617318
 21
5.9179562382
 31
0.0
  0
LINE
  5
BB
330
1F
100
AcDbEntity
  8
0
  6
Continuous
 62
     7
370
    30
100
AcDbLine
 10
4.4758617318
 20
6.4179561955
 30
0.0
 11
4.4608617184
 21
6.4179561955
 31
0.0
  0
LINE
  5
BC
330
1F
100
AcDbEntity
  8
0
  6
Continuous
 62
     7
370
    30
100
AcDbLine
 10
4.4608617184
 20
5.9179562382
 30
0.0
 11
3.9281018662
 21
5.9179562382
 31
0.0
  0
LINE
  5
BD
330
1F
100
AcDbEntity
  8
0
  6
Continuous
 62
     7
370
    30
100
AcDbLine
 10
3.9111377155
 20
5.9179562382
 30
0.0
 11
3.7165858964
 21
5.9179562382
 31
0.0
  0
LINE
  5
BE
330
1F
100
AcDbEntity
  8
0
  6
Continuous
 62
     7
370
    30
100
AcDbLine
 10
3.6996217457
 20
5.9179562382
 30
0.0
 11
3.1668618201
 21
5.9179562382
 31
0.0
  0
LINE
  5
BF
330
1F
100
AcDbEntity
  8
0
  6
Continuous
 62
     7
370
    30
100
AcDbLine
 10
3.2198617012
 20
6.4339561707
 30
0.0
 11
3.2198617012
 21
6.4179561955
 31
0.0
  0
LINE
  5
C0
330
1F
100
AcDbEntity
  8
0
  6
Continuous
 62
     7
370
    30
100
AcDbLine
 10
3.2198617012
 20
6.4339561707
 30
0.0
 11
4.407861764
 21
6.4339561707
 31
0.0
  0
LINE
  5
C1
330
1F
100
AcDbEntity
  8
0
  6
Continuous
 62
     7
370
    30
100
AcDbLine
 10
4.407861764
 20
6.4179561955
 30
0.0
 11
4.407861764
 21
6.4339561707
 31
0.0
  0
LINE
  5
C2
330
1F
100
AcDbEntity
  8
0
  6
Continuous
 62
     7
370
    30
100
AcDbLine
 10
4.407861764
 20
6.4179561955
 30
0.0
 11
4.4608617184
 21
6.4179561955
 31
0.0
  0
LINE
  5
C3
330
1F
100
AcDbEntity
  8
0
  6
Continuous
 62
     7
370
    30
100
AcDbLine
 10
3.1668618201
 20
6.4179561955
 30
0.0
 11
3.2198617012
 21
6.4179561955
 31
0.0
  0
LINE
  5
C4
330
1F
100
AcDbEntity
  8
0
  6
Continuous
 62
     7
370
    30
100
AcDbLine
 10
3.2198617012
 20
6.5119562696
 30
0.0
 11
3.2198617012
 21
6.4339561707
 31
0.0
  0
LINE
  5
C5
330
1F
100
AcDbEntity
  8
0
  6
Continuous
 62
     7
370
    30
100
AcDbLine
 10
3.2198617012
 20
6.5119562696
 30
0.0
 11
4.407861764
 21
6.5119562696
 31
0.0
  0
LINE
  5
C6
330
1F
100
AcDbEntity
  8
0
  6
Continuous
 62
     7
370
    30
100
AcDbLine
 10
4.407861764
 20
6.4339561707
 30
0.0
 11
4.407861764
 21
6.5119562696
 31
0.0
  0
LINE
  5
C7
330
1F
100
AcDbEntity
  8
0
  6
Continuous
 62
     7
370
    30
100
AcDbLine
 10
4.0638617113
 20
5.8839562176
 30
0.0
 11
4.0638617113
 21
5.8601189063
 31
0.0
  0
LINE
  5
C8
330
1F
100
AcDbEntity
  8
0
  6
Continuous
 62
     7
370
    30
100
AcDbLine
 10
4.0638617113
 20
5.8470041245
 30
0.0
 11
4.0638617113
 21
5.805956192
 31
0.0
  0
LINE
  5
C9
330
1F
100
AcDbEntity
  8
0
  6
Continuous
 62
     7
370
    30
100
AcDbLine
 10
4.0638617113
 20
5.805956192
 30
0.0
 11
4.0018617342
 21
5.805956192
 31
0.0
  0
LINE
  5
CA
330
1F
100
AcDbEntity
  8
0
  6
Continuous
 62
     7
370
    30
100
AcDbLine
 10
3.8874315227
 20
5.805956192
 30
0.0
 11
3.7229810758
 21
5.805956192
 31
0.0
  0
LINE
  5
CB
330
1F
100
AcDbEntity
  8
0
  6
Continuous
 62
     7
370
    30
100
AcDbLine
 10
3.6258617311
 20
5.805956192
 30
0.0
 11
3.563861754
 21
5.805956192
 31
0.0
  0
LINE
  5
CC
330
1F
100
AcDbEntity
  8
0
  6
Continuous
 62
     7
370
    30
100
AcDbLine
 10
3.563861754
 20
5.805956192
 30
0.0
 11
3.563861754
 21
5.8470041245
 31
0.0
  0
LINE
  5
CD
330
1F
100
AcDbEntity
  8
0
  6
Continuous
 62
     7
370
    30
100
AcDbLine
 10
3.563861754
 20
5.8601189063
 30
0.0
 11
3.563861754
 21
5.8839562176
 31
0.0
  0
LINE
  5
CE
330
1F
100
AcDbEntity
  8
0
  6
Continuous
 62
     7
370
    30
100
AcDbLine
 10
4.0638617113
 20
5.8839562176
 30
0.0
 11
4.0638617113
 21
5.9179562382
 31
0.0
  0
LINE
  5
CF
330
1F
100
AcDbEntity
  8
0
  6
Continuous
 62
     7
370
    30
100
AcDbLine
 10
3.563861754
 20
5.9179562382
 30
0.0
 11
3.563861754
 21
5.8839562176
 31
0.0
  0
LINE
  5
D0
330
1F
100
AcDbEntity
  8
0
  6
Continuous
 62
     7
370
    30
100
AcDbLine
 10
5.6888617558
 20
4.6059562212
 30
0.0
 11
5.6888617558
 21
4.6559562215
 31
0.0
  0
LINE
  5
D1
330
1F
100
AcDbEntity
  8
0
  6
Continuous
 62
     7
370
    30
100
AcDbLine
 10
5.9392701597
 20
4.6559562215
 30
0.0
 11
5.6888617558
 21
4.6559562215
 31
0.0
  0
ARC
  5
D2
330
1F
100
AcDbEntity
  8
0
  6
Continuous
 62
     7
370
    30
100
AcDbCircle
 10
5.9392701684
 20
4.6809562212
 30
0.0
 40
0.0249999999999998
100
AcDbArc
 50
270.0
 51
21.86614513
  0
ARC
  5
D3
330
1F
100
AcDbEntity
  8
0
  6
Continuous
 62
     7
370
    30
100
AcDbCircle
 10
6.0638617512
 20
4.7309562212
 30
0.0
 40
0.1092499999999999
100
AcDbArc
 50
193.0667292143
 51
201.86614513
  0
ARC
  5
D4
330
1F
100
AcDbEntity
  8
0
  6
Continuous
 62
     7
370
    30
100
AcDbCircle
 10
5.9817932014
 20
4.7119085013
 30
0.0
 40
0.0250000000000004
100
AcDbArc
 50
13.0667292143
 51
193.0667292143
  0
ARC
  5
D5
330
1F
100
AcDbEntity
  8
0
  6
Continuous
 62
     7
370
    30
100
AcDbCircle
 10
6.0638617512
 20
4.7309562212
 30
0.0
 40
0.0592499999999996
100
AcDbArc
 50
193.0667292143
 51
90.0
  0
LINE
  5
D6
330
1F
100
AcDbEntity
  8
0
  6
Continuous
 62
     7
370
    30
100
AcDbLine
 10
6.0388617626
 20
4.7902062194
 30
0.0
 11
6.0638617604
 21
4.7902062194
 31
0.0
  0
LINE
  5
D7
330
1F
100
AcDbEntity
  8
0
  6
Continuous
 62
     7
370
    30
100
AcDbLine
 10
6.0388617626
 20
5.6784683981
 30
0.0
 11
6.0388617626
 21
4.7902062194
 31
0.0
  0
ARC
  5
D8
330
1F
100
AcDbEntity
  8
0
  6
Continuous
 62
     7
370
    30
100
AcDbCircle
 10
5.9638617512
 20
5.6784683866
 30
0.0
 40
0.0750000000000009
100
AcDbArc
 50
0.0
 51
83.3002348222
  0
ARC
  5
D9
330
1F
100
AcDbEntity
  8
0
  6
Continuous
 62
     7
370
    30
100
AcDbCircle
 10
5.9778617512
 20
5.7976489219
 30
0.0
 40
0.044999999999999
100
AcDbArc
 50
180.0
 51
263.3002348222
  0
LINE
  5
DA
330
1F
100
AcDbEntity
  8
0
  6
Continuous
 62
     7
370
    30
100
AcDbLine
 10
5.9328617804
 20
5.872956198
 30
0.0
 11
5.9328617804
 21
5.7976489413
 31
0.0
  0
ARC
  5
DB
330
1F
100
AcDbEntity
  8
0
  6
Continuous
 62
     7
370
    30
100
AcDbCircle
 10
5.9428617512
 20
5.8729562212
 30
0.0
 40
0.0099999999999989
100
AcDbArc
 50
90.0
 51
180.0
  0
LINE
  5
DC
330
1F
100
AcDbEntity
  8
0
  6
Continuous
 62
     7
370
    30
100
AcDbLine
 10
5.9492977905
 20
5.8829562559
 30
0.0
 11
5.9428617649
 21
5.8829562559
 31
0.0
  0
LINE
  5
DD
330
1F
100
AcDbEntity
  8
0
  6
Continuous
 62
     7
370
    30
100
AcDbLine
 10
5.9828617761
 20
5.8429561713
 30
0.0
 11
5.9492977905
 21
5.8829562559
 31
0.0
  0
LINE
  5
DE
330
1F
100
AcDbEntity
  8
0
  6
Continuous
 62
     7
370
    30
100
AcDbLine
 10
5.974045378
 20
5.7929562489
 30
0.0
 11
5.9828617761
 21
5.8429561713
 31
0.0
  0
LINE
  5
DF
330
1F
100
AcDbEntity
  8
0
  6
Continuous
 62
     7
370
    30
100
AcDbLine
 10
6.0388617626
 20
5.7929562489
 30
0.0
 11
5.974045378
 21
5.7929562489
 31
0.0
  0
LINE
  5
E0
330
1F
100
AcDbEntity
  8
0
  6
Continuous
 62
     7
370
    30
100
AcDbLine
 10
6.1536780695
 20
5.7929562489
 30
0.0
 11
6.0888617583
 21
5.7929562489
 31
0.0
  0
LINE
  5
E1
330
1F
100
AcDbEntity
  8
0
  6
Continuous
 62
     7
370
    30
100
AcDbLine
 10
6.1448617447
 20
5.8429561713
 30
0.0
 11
6.1536780695
 21
5.7929562489
 31
0.0
  0
LINE
  5
E2
330
1F
100
AcDbEntity
  8
0
  6
Continuous
 62
     7
370
    30
100
AcDbLine
 10
6.1784257303
 20
5.8829562559
 30
0.0
 11
6.1448617447
 21
5.8429561713
 31
0.0
  0
LINE
  5
E3
330
1F
100
AcDbEntity
  8
0
  6
Continuous
 62
     7
370
    30
100
AcDbLine
 10
6.184861756
 20
5.8829562559
 30
0.0
 11
6.1784257303
 21
5.8829562559
 31
0.0
  0
ARC
  5
E4
330
1F
100
AcDbEntity
  8
0
  6
Continuous
 62
     7
370
    30
100
AcDbCircle
 10
6.1848617512
 20
5.8729562212
 30
0.0
 40
0.0100000000000007
100
AcDbArc
 50
0.0
 51
90.0
  0
LINE
  5
E5
330
1F
100
AcDbEntity
  8
0
  6
Continuous
 62
     7
370
    30
100
AcDbLine
 10
6.1948617404
 20
5.7976489413
 30
0.0
 11
6.1948617404
 21
5.872956198
 31
0.0
  0
ARC
  5
E6
330
1F
100
AcDbEntity
  8
0
  6
Continuous
 62
     7
370
    30
100
AcDbCircle
 10
6.1498617512
 20
5.7976489219
 30
0.0
 40
0.0450000000000008
100
AcDbArc
 50
276.6997651778
 51
0.0
  0
ARC
  5
E7
330
1F
100
AcDbEntity
  8
0
  6
Continuous
 62
     7
370
    30
100
AcDbCircle
 10
6.1638617512
 20
5.6784683866
 30
0.0
 40
0.075000000000001
100
AcDbArc
 50
96.6997651778
 51
180.0
  0
LINE
  5
E8
330
1F
100
AcDbEntity
  8
0
  6
Continuous
 62
     7
370
    30
100
AcDbLine
 10
6.0888617583
 20
4.8373073453
 30
0.0
 11
6.0888617583
 21
5.6784683981
 31
0.0
  0
ARC
  5
E9
330
1F
100
AcDbEntity
  8
0
  6
Continuous
 62
     7
370
    30
100
AcDbCircle
 10
6.0638617512
 20
4.7309562212
 30
0.0
 40
0.1092500000000006
100
AcDbArc
 50
338.13385487
 51
76.7716275079
  0
ARC
  5
EA
330
1F
100
AcDbEntity
  8
0
  6
Continuous
 62
     7
370
    30
100
AcDbCircle
 10
6.1884533339
 20
4.6809562212
 30
0.0
 40
0.0250000000000006
100
AcDbArc
 50
158.13385487
 51
270.0
  0
LINE
  5
EB
330
1F
100
AcDbEntity
  8
0
  6
Continuous
 62
     7
370
    30
100
AcDbLine
 10
6.4388617284
 20
4.6559562215
 30
0.0
 11
6.1884533611
 21
4.6559562215
 31
0.0
  0
LINE
  5
EC
330
1F
100
AcDbEntity
  8
0
  6
Continuous
 62
     7
370
    30
100
AcDbLine
 10
6.4388617284
 20
4.6059562212
 30
0.0
 11
6.4388617284
 21
4.6559562215
 31
0.0
  0
LINE
  5
ED
330
1F
100
AcDbEntity
  8
0
  6
Continuous
 62
     7
370
    30
100
AcDbLine
 10
5.6888617558
 20
4.6059562212
 30
0.0
 11
6.4388617284
 21
4.6059562212
 31
0.0
  0
LINE
  5
EE
330
1F
100
AcDbEntity
  8
0
  6
Continuous
 62
     7
370
    30
100
AcDbLine
 10
6.0888617583
 20
5.7929562489
 30
0.0
 11
6.0888617583
 21
6.4179561955
 31
0.0
  0
LINE
  5
EF
330
1F
100
AcDbEntity
  8
0
  6
Continuous
 62
     7
370
    30
100
AcDbLine
 10
6.0388617626
 20
6.4179561955
 30
0.0
 11
6.0388617626
 21
5.7929562489
 31
0.0
  0
LINE
  5
F0
330
1F
100
AcDbEntity
  8
0
  6
Continuous
 62
     7
370
    30
100
AcDbLine
 10
6.0388617626
 20
6.4179561955
 30
0.0
 11
6.0888617583
 21
6.4179561955
 31
0.0
  0
LINE
  5
F1
330
1F
100
AcDbEntity
  8
0
  6
Continuous
 62
     7
370
    30
100
AcDbLine
 10
4.1888617739
 20
4.6059562212
 30
0.0
 11
4.1888617739
 21
4.6559562215
 31
0.0
  0
LINE
  5
F2
330
1F
100
AcDbEntity
  8
0
  6
Continuous
 62
     7
370
    30
100
AcDbLine
 10
4.4392701412
 20
4.6559562215
 30
0.0
 11
4.1888617739
 21
4.6559562215
 31
0.0
  0
ARC
  5
F3
330
1F
100
AcDbEntity
  8
0
  6
Continuous
 62
     7
370
    30
100
AcDbCircle
 10
4.4392701684
 20
4.6809562212
 30
0.0
 40
0.0249999999999998
100
AcDbArc
 50
270.0
 51
21.86614513
  0
ARC
  5
F4
330
1F
100
AcDbEntity
  8
0
  6
Continuous
 62
     7
370
    30
100
AcDbCircle
 10
4.5638617512
 20
4.7309562212
 30
0.0
 40
0.1092500000000008
100
AcDbArc
 50
193.0667292143
 51
201.86614513
  0
ARC
  5
F5
330
1F
100
AcDbEntity
  8
0
  6
Continuous
 62
     7
370
    30
100
AcDbCircle
 10
4.4817932014
 20
4.7119085013
 30
0.0
 40
0.0250000000000002
100
AcDbArc
 50
13.0667292143
 51
193.0667292143
  0
ARC
  5
F6
330
1F
100
AcDbEntity
  8
0
  6
Continuous
 62
     7
370
    30
100
AcDbCircle
 10
4.5638617512
 20
4.7309562212
 30
0.0
 40
0.059250000000001
100
AcDbArc
 50
193.0667292143
 51
90.0
  0
LINE
  5
F7
330
1F
100
AcDbEntity
  8
0
  6
Continuous
 62
     7
370
    30
100
AcDbLine
 10
4.538861744
 20
4.7902062194
 30
0.0
 11
4.5638617419
 21
4.7902062194
 31
0.0
  0
LINE
  5
F8
330
1F
100
AcDbEntity
  8
0
  6
Continuous
 62
     7
370
    30
100
AcDbLine
 10
4.538861744
 20
5.6784683981
 30
0.0
 11
4.538861744
 21
4.7902062194
 31
0.0
  0
ARC
  5
F9
330
1F
100
AcDbEntity
  8
0
  6
Continuous
 62
     7
370
    30
100
AcDbCircle
 10
4.4638617512
 20
5.6784683866
 30
0.0
 40
0.0750000000000002
100
AcDbArc
 50
0.0
 51
83.3002348222
  0
ARC
  5
FA
330
1F
100
AcDbEntity
  8
0
  6
Continuous
 62
     7
370
    30
100
AcDbCircle
 10
4.4778617512
 20
5.7976489219
 30
0.0
 40
0.0449999999999999
100
AcDbArc
 50
180.0
 51
263.3002348222
  0
LINE
  5
FB
330
1F
100
AcDbEntity
  8
0
  6
Continuous
 62
     7
370
    30
100
AcDbLine
 10
4.4328617619
 20
5.872956198
 30
0.0
 11
4.4328617619
 21
5.7976489413
 31
0.0
  0
ARC
  5
FC
330
1F
100
AcDbEntity
  8
0
  6
Continuous
 62
     7
370
    30
100
AcDbCircle
 10
4.4428617512
 20
5.8729562212
 30
0.0
 40
0.0099999999999998
100
AcDbArc
 50
90.0
 51
180.0
  0
LINE
  5
FD
330
1F
100
AcDbEntity
  8
0
  6
Continuous
 62
     7
370
    30
100
AcDbLine
 10
4.449297772
 20
5.8829562559
 30
0.0
 11
4.4428617464
 21
5.8829562559
 31
0.0
  0
LINE
  5
FE
330
1F
100
AcDbEntity
  8
0
  6
Continuous
 62
     7
370
    30
100
AcDbLine
 10
4.4828617576
 20
5.8429561713
 30
0.0
 11
4.449297772
 21
5.8829562559
 31
0.0
  0
LINE
  5
FF
330
1F
100
AcDbEntity
  8
0
  6
Continuous
 62
     7
370
    30
100
AcDbLine
 10
4.4740454328
 20
5.7929562489
 30
0.0
 11
4.4828617576
 21
5.8429561713
 31
0.0
  0
LINE
  5
100
330
1F
100
AcDbEntity
  8
0
  6
Continuous
 62
     7
370
    30
100
AcDbLine
 10
4.538861744
 20
5.7929562489
 30
0.0
 11
4.4740454328
 21
5.7929562489
 31
0.0
  0
LINE
  5
101
330
1F
100
AcDbEntity
  8
0
  6
Continuous
 62
     7
370
    30
100
AcDbLine
 10
4.538861744
 20
6.4179561955
 30
0.0
 11
4.538861744
 21
5.7929562489
 31
0.0
  0
LINE
  5
102
330
1F
100
AcDbEntity
  8
0
  6
Continuous
 62
     7
370
    30
100
AcDbLine
 10
4.5888617397
 20
5.7929562489
 30
0.0
 11
4.5888617397
 21
6.4179561955
 31
0.0
  0
LINE
  5
103
330
1F
100
AcDbEntity
  8
0
  6
Continuous
 62
     7
370
    30
100
AcDbLine
 10
4.6536781243
 20
5.7929562489
 30
0.0
 11
4.5888617397
 21
5.7929562489
 31
0.0
  0
LINE
  5
104
330
1F
100
AcDbEntity
  8
0
  6
Continuous
 62
     7
370
    30
100
AcDbLine
 10
4.6448617262
 20
5.8429561713
 30
0.0
 11
4.6536781243
 21
5.7929562489
 31
0.0
  0
LINE
  5
105
330
1F
100
AcDbEntity
  8
0
  6
Continuous
 62
     7
370
    30
100
AcDbLine
 10
4.6784257118
 20
5.8829562559
 30
0.0
 11
4.6448617262
 21
5.8429561713
 31
0.0
  0
LINE
  5
106
330
1F
100
AcDbEntity
  8
0
  6
Continuous
 62
     7
370
    30
100
AcDbLine
 10
4.6848617374
 20
5.8829562559
 30
0.0
 11
4.6784257118
 21
5.8829562559
 31
0.0
  0
ARC
  5
107
330
1F
100
AcDbEntity
  8
0
  6
Continuous
 62
     7
370
    30
100
AcDbCircle
 10
4.6848617512
 20
5.8729562212
 30
0.0
 40
0.0100000000000007
100
AcDbArc
 50
0.0
 51
90.0
  0
LINE
  5
108
330
1F
100
AcDbEntity
  8
0
  6
Continuous
 62
     7
370
    30
100
AcDbLine
 10
4.6948617219
 20
5.7976489413
 30
0.0
 11
4.6948617219
 21
5.872956198
 31
0.0
  0
ARC
  5
109
330
1F
100
AcDbEntity
  8
0
  6
Continuous
 62
     7
370
    30
100
AcDbCircle
 10
4.6498617512
 20
5.7976489219
 30
0.0
 40
0.0450000000000008
100
AcDbArc
 50
276.6997651778
 51
0.0
  0
ARC
  5
10A
330
1F
100
AcDbEntity
  8
0
  6
Continuous
 62
     7
370
    30
100
AcDbCircle
 10
4.6638617512
 20
5.6784683866
 30
0.0
 40
0.0750000000000002
100
AcDbArc
 50
96.6997651778
 51
180.0
  0
LINE
  5
10B
330
1F
100
AcDbEntity
  8
0
  6
Continuous
 62
     7
370
    30
100
AcDbLine
 10
4.5888617397
 20
4.8373073453
 30
0.0
 11
4.5888617397
 21
5.6784683981
 31
0.0
  0
ARC
  5
10C
330
1F
100
AcDbEntity
  8
0
  6
Continuous
 62
     7
370
    30
100
AcDbCircle
 10
4.5638617512
 20
4.7309562212
 30
0.0
 40
0.1092499999999998
100
AcDbArc
 50
338.13385487
 51
76.7716275079
  0
ARC
  5
10D
330
1F
100
AcDbEntity
  8
0
  6
Continuous
 62
     7
370
    30
100
AcDbCircle
 10
4.6884533339
 20
4.6809562212
 30
0.0
 40
0.0250000000000004
100
AcDbArc
 50
158.13385487
 51
270.0
  0
LINE
  5
10E
330
1F
100
AcDbEntity
  8
0
  6
Continuous
 62
     7
370
    30
100
AcDbLine
 10
4.9388617465
 20
4.6559562215
 30
0.0
 11
4.6884533426
 21
4.6559562215
 31
0.0
  0
LINE
  5
10F
330
1F
100
AcDbEntity
  8
0
  6
Continuous
 62
     7
370
    30
100
AcDbLine
 10
4.1888617739
 20
4.6059562212
 30
0.0
 11
4.9388617465
 21
4.6059562212
 31
0.0
  0
LINE
  5
110
330
1F
100
AcDbEntity
  8
0
  6
Continuous
 62
     7
370
    30
100
AcDbLine
 10
4.538861744
 20
6.4179561955
 30
0.0
 11
4.5888617397
 21
6.4179561955
 31
0.0
  0
LINE
  5
111
330
1F
100
AcDbEntity
  8
0
  6
Continuous
 62
     7
370
    30
100
AcDbLine
 10
4.9388617465
 20
4.6059562212
 30
0.0
 11
4.9388617465
 21
4.6559562215
 31
0.0
  0
LINE
  5
112
330
1F
100
AcDbEntity
  8
0
  6
Continuous
 62
     7
370
    30
100
AcDbLine
 10
1.8138617568
 20
4.6409562219
 30
0.0
 11
1.8138617568
 21
4.6307545181
 31
0.0
  0
ARC
  5
113
330
1F
100
AcDbEntity
  8
0
  6
Continuous
 62
     7
370
    30
100
AcDbCircle
 10
1.8288617512
 20
4.6409562212
 30
0.0
 40
0.0150000000000006
100
AcDbArc
 50
90.0
 51
180.0
  0
LINE
  5
114
330
1F
100
AcDbEntity
  8
0
  6
Continuous
 62
     7
370
    30
100
AcDbLine
 10
1.8288617702
 20
4.6559562215
 30
0.0
 11
3.0238617121
 21
4.6559562215
 31
0.0
  0
ARC
  5
115
330
1F
100
AcDbEntity
  8
0
  6
Continuous
 62
     7
370
    30
100
AcDbCircle
 10
3.0238617512
 20
4.6709562212
 30
0.0
 40
0.0150000000000001
100
AcDbArc
 50
270.0
 51
0.0
  0
LINE
  5
116
330
1F
100
AcDbEntity
  8
0
  6
Continuous
 62
     7
370
    30
100
AcDbLine
 10
3.0388617255
 20
4.6709562211
 30
0.0
 11
3.0388617255
 21
4.8619562272
 31
0.0
  0
ARC
  5
117
330
1F
100
AcDbEntity
  8
0
  6
Continuous
 62
     7
370
    30
100
AcDbCircle
 10
3.0238617512
 20
4.8619562212
 30
0.0
 40
0.0150000000000001
100
AcDbArc
 50
0.0
 51
90.0
  0
LINE
  5
118
330
1F
100
AcDbEntity
  8
0
  6
Continuous
 62
     7
370
    30
100
AcDbLine
 10
3.0238617121
 20
4.8769562222
 30
0.0
 11
2.9413617851
 21
4.8769562222
 31
0.0
  0
ARC
  5
119
330
1F
100
AcDbEntity
  8
0
  6
Continuous
 62
     7
370
    30
100
AcDbCircle
 10
2.9413617512
 20
4.8919562212
 30
0.0
 40
0.0149999999999997
100
AcDbArc
 50
180.0
 51
270.0
  0
LINE
  5
11A
330
1F
100
AcDbEntity
  8
0
  6
Continuous
 62
     7
370
    30
100
AcDbLine
 10
2.9263617718
 20
4.8919562173
 30
0.0
 11
2.9263617718
 21
4.9807062354
 31
0.0
  0
ARC
  5
11B
330
1F
100
AcDbEntity
  8
0
  6
Continuous
 62
     7
370
    30
100
AcDbCircle
 10
2.9413617512
 20
4.9807062212
 30
0.0
 40
0.0150000000000006
100
AcDbArc
 50
90.0
 51
180.0
  0
LINE
  5
11C
330
1F
100
AcDbEntity
  8
0
  6
Continuous
 62
     7
370
    30
100
AcDbLine
 10
2.9413617851
 20
4.9957062121
 30
0.0
 11
2.9613617541
 21
4.9957062121
 31
0.0
  0
ARC
  5
11D
330
1F
100
AcDbEntity
  8
0
  6
Continuous
 62
     7
370
    30
100
AcDbCircle
 10
2.9613617512
 20
4.9807062212
 30
0.0
 40
0.0150000000000006
100
AcDbArc
 50
0.0
 51
90.0
  0
LINE
  5
11E
330
1F
100
AcDbEntity
  8
0
  6
Continuous
 62
     7
370
    30
100
AcDbLine
 10
2.9763617675
 20
4.9807062354
 30
0.0
 11
2.9763617675
 21
4.941956213
 31
0.0
  0
ARC
  5
11F
330
1F
100
AcDbEntity
  8
0
  6
Continuous
 62
     7
370
    30
100
AcDbCircle
 10
2.9913617512
 20
4.9419562212
 30
0.0
 40
0.0150000000000006
100
AcDbArc
 50
180.0
 51
270.0
  0
LINE
  5
120
330
1F
100
AcDbEntity
  8
0
  6
Continuous
 62
     7
370
    30
100
AcDbLine
 10
2.9913617809
 20
4.9269562363
 30
0.0
 11
3.0238617121
 21
4.9269562363
 31
0.0
  0
ARC
  5
121
330
1F
100
AcDbEntity
  8
0
  6
Continuous
 62
     7
370
    30
100
AcDbCircle
 10
3.0238617512
 20
4.9419562212
 30
0.0
 40
0.0150000000000001
100
AcDbArc
 50
270.0
 51
0.0
  0
LINE
  5
122
330
1F
100
AcDbEntity
  8
0
  6
Continuous
 62
     7
370
    30
100
AcDbLine
 10
3.0388617255
 20
4.941956213
 30
0.0
 11
3.0388617255
 21
5.5369562062
 31
0.0
  0
ARC
  5
123
330
1F
100
AcDbEntity
  8
0
  6
Continuous
 62
     7
370
    30
100
AcDbCircle
 10
3.0238617512
 20
5.5369562212
 30
0.0
 40
0.0149999999999997
100
AcDbArc
 50
0.0
 51
90.0
  0
LINE
  5
124
330
1F
100
AcDbEntity
  8
0
  6
Continuous
 62
     7
370
    30
100
AcDbLine
 10
3.0238617121
 20
5.5519562196
 30
0.0
 11
2.9913617809
 21
5.5519562196
 31
0.0
  0
ARC
  5
125
330
1F
100
AcDbEntity
  8
0
  6
Continuous
 62
     7
370
    30
100
AcDbCircle
 10
2.9913617512
 20
5.5369562212
 30
0.0
 40
0.0150000000000006
100
AcDbArc
 50
90.0
 51
180.0
  0
LINE
  5
126
330
1F
100
AcDbEntity
  8
0
  6
Continuous
 62
     7
370
    30
100
AcDbLine
 10
2.9763617675
 20
5.5369562062
 30
0.0
 11
2.9763617675
 21
5.4982062205
 31
0.0
  0
ARC
  5
127
330
1F
100
AcDbEntity
  8
0
  6
Continuous
 62
     7
370
    30
100
AcDbCircle
 10
2.9613617512
 20
5.4982062212
 30
0.0
 40
0.0149999999999997
100
AcDbArc
 50
270.0
 51
0.0
  0
LINE
  5
128
330
1F
100
AcDbEntity
  8
0
  6
Continuous
 62
     7
370
    30
100
AcDbLine
 10
2.9613617541
 20
5.4832062071
 30
0.0
 11
2.9413617851
 21
5.4832062071
 31
0.0
  0
ARC
  5
129
330
1F
100
AcDbEntity
  8
0
  6
Continuous
 62
     7
370
    30
100
AcDbCircle
 10
2.9413617512
 20
5.4982062212
 30
0.0
 40
0.0149999999999997
100
AcDbArc
 50
180.0
 51
270.0
  0
LINE
  5
12A
330
1F
100
AcDbEntity
  8
0
  6
Continuous
 62
     7
370
    30
100
AcDbLine
 10
2.9263617718
 20
5.4982062205
 30
0.0
 11
2.9263617718
 21
5.6557062144
 31
0.0
  0
ARC
  5
12B
330
1F
100
AcDbEntity
  8
0
  6
Continuous
 62
     7
370
    30
100
AcDbCircle
 10
2.9413617512
 20
5.6557062212
 30
0.0
 40
0.0150000000000006
100
AcDbArc
 50
90.0
 51
180.0
  0
LINE
  5
12C
330
1F
100
AcDbEntity
  8
0
  6
Continuous
 62
     7
370
    30
100
AcDbLine
 10
2.9413617851
 20
5.6707062278
 30
0.0
 11
2.9613617541
 21
5.6707062278
 31
0.0
  0
ARC
  5
12D
330
1F
100
AcDbEntity
  8
0
  6
Continuous
 62
     7
370
    30
100
AcDbCircle
 10
2.9613617512
 20
5.6557062212
 30
0.0
 40
0.0150000000000006
100
AcDbArc
 50
0.0
 51
90.0
  0
LINE
  5
12E
330
1F
100
AcDbEntity
  8
0
  6
Continuous
 62
     7
370
    30
100
AcDbLine
 10
2.9763617675
 20
5.6557062144
 30
0.0
 11
2.9763617675
 21
5.6169562287
 31
0.0
  0
ARC
  5
12F
330
1F
100
AcDbEntity
  8
0
  6
Continuous
 62
     7
370
    30
100
AcDbCircle
 10
2.9913617512
 20
5.6169562212
 30
0.0
 40
0.0149999999999997
100
AcDbArc
 50
180.0
 51
270.0
  0
LINE
  5
130
330
1F
100
AcDbEntity
  8
0
  6
Continuous
 62
     7
370
    30
100
AcDbLine
 10
2.9913617809
 20
5.6019562153
 30
0.0
 11
3.0238617121
 21
5.6019562153
 31
0.0
  0
ARC
  5
131
330
1F
100
AcDbEntity
  8
0
  6
Continuous
 62
     7
370
    30
100
AcDbCircle
 10
3.0238617512
 20
5.6169562212
 30
0.0
 40
0.0150000000000001
100
AcDbArc
 50
270.0
 51
0.0
  0
LINE
  5
132
330
1F
100
AcDbEntity
  8
0
  6
Continuous
 62
     7
370
    30
100
AcDbLine
 10
3.0388617255
 20
5.6169562287
 30
0.0
 11
3.0388617255
 21
6.4079562843
 31
0.0
  0
ARC
  5
133
330
1F
100
AcDbEntity
  8
0
  6
Continuous
 62
     7
370
    30
100
AcDbCircle
 10
3.0488617512
 20
6.4079562212
 30
0.0
 40
0.0100000000000002
100
AcDbArc
 50
90.0
 51
180.0
  0
LINE
  5
134
330
1F
100
AcDbEntity
  8
0
  6
Continuous
 62
     7
370
    30
100
AcDbLine
 10
3.0488617833
 20
6.4179561955
 30
0.0
 11
3.0788618101
 21
6.4179561955
 31
0.0
  0
ARC
  5
135
330
1F
100
AcDbEntity
  8
0
  6
Continuous
 62
     7
370
    30
100
AcDbCircle
 10
3.0788617512
 20
6.4079562212
 30
0.0
 40
0.0100000000000002
100
AcDbArc
 50
0.0
 51
90.0
  0
LINE
  5
136
330
1F
100
AcDbEntity
  8
0
  6
Continuous
 62
     7
370
    30
100
AcDbLine
 10
3.0888617212
 20
6.4079562843
 30
0.0
 11
3.0888617212
 21
5.8079561889
 31
0.0
  0
ARC
  5
137
330
1F
100
AcDbEntity
  8
0
  6
Continuous
 62
     7
370
    30
100
AcDbCircle
 10
3.1038617512
 20
5.8079562212
 30
0.0
 40
0.0149999999999997
100
AcDbArc
 50
180.0
 51
270.0
  0
LINE
  5
138
330
1F
100
AcDbEntity
  8
0
  6
Continuous
 62
     7
370
    30
100
AcDbLine
 10
3.1038617346
 20
5.7929562489
 30
0.0
 11
3.1358018456
 21
5.7929562489
 31
0.0
  0
ARC
  5
139
330
1F
100
AcDbEntity
  8
0
  6
Continuous
 62
     7
370
    30
100
AcDbCircle
 10
3.1358017963
 20
5.8079562212
 30
0.0
 40
0.0150000000000004
100
AcDbArc
 50
270.0
 51
10.0
  0
LINE
  5
13A
330
1F
100
AcDbEntity
  8
0
  6
Continuous
 62
     7
370
    30
100
AcDbLine
 10
3.1505739416
 20
5.8105609588
 30
0.0
 11
3.144861781
 21
5.8429561713
 31
0.0
  0
LINE
  5
13B
330
1F
100
AcDbEntity
  8
0
  6
Continuous
 62
     7
370
    30
100
AcDbLine
 10
3.144861781
 20
5.8429561713
 30
0.0
 11
3.1784257666
 21
5.8829562559
 31
0.0
  0
LINE
  5
13C
330
1F
100
AcDbEntity
  8
0
  6
Continuous
 62
     7
370
    30
100
AcDbLine
 10
3.1784257666
 20
5.8829562559
 30
0.0
 11
3.1848617189
 21
5.8829562559
 31
0.0
  0
ARC
  5
13D
330
1F
100
AcDbEntity
  8
0
  6
Continuous
 62
     7
370
    30
100
AcDbCircle
 10
3.1848617512
 20
5.8729562212
 30
0.0
 40
0.0100000000000007
100
AcDbArc
 50
0.0
 51
90.0
  0
LINE
  5
13E
330
1F
100
AcDbEntity
  8
0
  6
Continuous
 62
     7
370
    30
100
AcDbLine
 10
3.1948617767
 20
5.872956198
 30
0.0
 11
3.1948617767
 21
5.7976489413
 31
0.0
  0
ARC
  5
13F
330
1F
100
AcDbEntity
  8
0
  6
Continuous
 62
     7
370
    30
100
AcDbCircle
 10
3.1498617512
 20
5.7976489219
 30
0.0
 40
0.044999999999999
100
AcDbArc
 50
276.6997651778
 51
0.0
  0
ARC
  5
140
330
1F
100
AcDbEntity
  8
0
  6
Continuous
 62
     7
370
    30
100
AcDbCircle
 10
3.1638617512
 20
5.6784683866
 30
0.0
 40
0.0750000000000002
100
AcDbArc
 50
96.6997651778
 51
180.0
  0
LINE
  5
141
330
1F
100
AcDbEntity
  8
0
  6
Continuous
 62
     7
370
    30
100
AcDbLine
 10
3.0888617212
 20
5.6784683981
 30
0.0
 11
3.0888617212
 21
4.6709562211
 31
0.0
  0
ARC
  5
142
330
1F
100
AcDbEntity
  8
0
  6
Continuous
 62
     7
370
    30
100
AcDbCircle
 10
3.1038617512
 20
4.6709562212
 30
0.0
 40
0.0149999999999997
100
AcDbArc
 50
180.0
 51
270.0
  0
LINE
  5
143
330
1F
100
AcDbEntity
  8
0
  6
Continuous
 62
     7
370
    30
100
AcDbLine
 10
3.1038617346
 20
4.6559562215
 30
0.0
 11
3.4238616779
 21
4.6559562215
 31
0.0
  0
LINE
  5
144
330
1F
100
AcDbEntity
  8
0
  6
Continuous
 62
     7
370
    30
100
AcDbLine
 10
3.4088618112
 20
4.5879562216
 30
0.0
 11
3.4088618112
 21
4.5943623746
 31
0.0
  0
LINE
  5
145
330
1F
100
AcDbEntity
  8
0
  6
Continuous
 62
     7
370
    30
100
AcDbLine
 10
3.4088618112
 20
4.5943623746
 30
0.0
 11
1.8286587858
 21
4.6157558934
 31
0.0
  0
ARC
  5
146
330
1F
100
AcDbEntity
  8
0
  6
Continuous
 62
     7
370
    30
100
AcDbCircle
 10
1.8288617512
 20
4.6307545189
 30
0.0
 40
0.0150000000000003
100
AcDbArc
 50
180.0
 51
269.22435068
  0
LINE
  5
147
330
1F
100
AcDbEntity
  8
0
  6
Continuous
 62
     7
370
    30
100
AcDbLine
 10
3.4388616913
 20
4.6409562219
 30
0.0
 11
3.4388616913
 21
4.5679562206
 31
0.0
  0
ARC
  5
148
330
1F
100
AcDbEntity
  8
0
  6
Continuous
 62
     7
370
    30
100
AcDbCircle
 10
3.4338617512
 20
4.5679562212
 30
0.0
 40
0.0050000000000003
100
AcDbArc
 50
270.0
 51
0.0
  0
ARC
  5
149
330
1F
100
AcDbEntity
  8
0
  6
Continuous
 62
     7
370
    30
100
AcDbCircle
 10
3.4338617512
 20
4.5879562212
 30
0.0
 40
0.0250000000000004
100
AcDbArc
 50
180.0
 51
270.0
  0
ARC
  5
14A
330
1F
100
AcDbEntity
  8
0
  6
Continuous
 62
     7
370
    30
100
AcDbCircle
 10
3.4238617512
 20
4.6409562212
 30
0.0
 40
0.0150000000000001
100
AcDbArc
 50
0.0
 51
90.0
  0
LINE
  5
14B
330
1F
100
AcDbEntity
  8
0
  6
Continuous
 62
     7
370
    30
100
AcDbLine
 10
8.7990647165
 20
4.6157558934
 30
0.0
 11
7.2188616911
 21
4.5943623746
 31
0.0
  0
LINE
  5
14C
330
1F
100
AcDbEntity
  8
0
  6
Continuous
 62
     7
370
    30
100
AcDbLine
 10
7.2188616911
 20
4.5943623746
 30
0.0
 11
7.2188616911
 21
4.5879562216
 31
0.0
  0
ARC
  5
14D
330
1F
100
AcDbEntity
  8
0
  6
Continuous
 62
     7
370
    30
100
AcDbCircle
 10
7.1938617512
 20
4.5879562212
 30
0.0
 40
0.0250000000000004
100
AcDbArc
 50
270.0
 51
0.0
  0
LINE
  5
14E
330
1F
100
AcDbEntity
  8
0
  6
Continuous
 62
     7
370
    30
100
AcDbLine
 10
7.2038618244
 20
4.6559562215
 30
0.0
 11
7.5238617677
 21
4.6559562215
 31
0.0
  0
ARC
  5
14F
330
1F
100
AcDbEntity
  8
0
  6
Continuous
 62
     7
370
    30
100
AcDbCircle
 10
7.5238617512
 20
4.6709562212
 30
0.0
 40
0.0149999999999997
100
AcDbArc
 50
270.0
 51
0.0
  0
LINE
  5
150
330
1F
100
AcDbEntity
  8
0
  6
Continuous
 62
     7
370
    30
100
AcDbLine
 10
7.5388617811
 20
4.6709562211
 30
0.0
 11
7.5388617811
 21
5.6784683981
 31
0.0
  0
ARC
  5
151
330
1F
100
AcDbEntity
  8
0
  6
Continuous
 62
     7
370
    30
100
AcDbCircle
 10
7.4638617512
 20
5.6784683866
 30
0.0
 40
0.0750000000000002
100
AcDbArc
 50
0.0
 51
83.3002348222
  0
ARC
  5
152
330
1F
100
AcDbEntity
  8
0
  6
Continuous
 62
     7
370
    30
100
AcDbCircle
 10
7.4778617512
 20
5.7976489219
 30
0.0
 40
0.044999999999999
100
AcDbArc
 50
180.0
 51
263.3002348222
  0
LINE
  5
153
330
1F
100
AcDbEntity
  8
0
  6
Continuous
 62
     7
370
    30
100
AcDbLine
 10
7.4328617256
 20
5.7976489413
 30
0.0
 11
7.4328617256
 21
5.872956198
 31
0.0
  0
ARC
  5
154
330
1F
100
AcDbEntity
  8
0
  6
Continuous
 62
     7
370
    30
100
AcDbCircle
 10
7.4428617512
 20
5.8729562212
 30
0.0
 40
0.0100000000000007
100
AcDbArc
 50
90.0
 51
180.0
  0
LINE
  5
155
330
1F
100
AcDbEntity
  8
0
  6
Continuous
 62
     7
370
    30
100
AcDbLine
 10
7.4428617834
 20
5.8829562559
 30
0.0
 11
7.4492977357
 21
5.8829562559
 31
0.0
  0
LINE
  5
156
330
1F
100
AcDbEntity
  8
0
  6
Continuous
 62
     7
370
    30
100
AcDbLine
 10
7.4492977357
 20
5.8829562559
 30
0.0
 11
7.4828617213
 21
5.8429561713
 31
0.0
  0
LINE
  5
157
330
1F
100
AcDbEntity
  8
0
  6
Continuous
 62
     7
370
    30
100
AcDbLine
 10
7.4828617213
 20
5.8429561713
 30
0.0
 11
7.4771495607
 21
5.8105609588
 31
0.0
  0
ARC
  5
158
330
1F
100
AcDbEntity
  8
0
  6
Continuous
 62
     7
370
    30
100
AcDbCircle
 10
7.491921706
 20
5.8079562212
 30
0.0
 40
0.015
100
AcDbArc
 50
170.0
 51
270.0
  0
LINE
  5
159
330
1F
100
AcDbEntity
  8
0
  6
Continuous
 62
     7
370
    30
100
AcDbLine
 10
7.4919216567
 20
5.7929562489
 30
0.0
 11
7.5238617677
 21
5.7929562489
 31
0.0
  0
ARC
  5
15A
330
1F
100
AcDbEntity
  8
0
  6
Continuous
 62
     7
370
    30
100
AcDbCircle
 10
7.5238617512
 20
5.8079562212
 30
0.0
 40
0.0150000000000006
100
AcDbArc
 50
270.0
 51
0.0
  0
LINE
  5
15B
330
1F
100
AcDbEntity
  8
0
  6
Continuous
 62
     7
370
    30
100
AcDbLine
 10
7.5388617811
 20
5.8079561889
 30
0.0
 11
7.5388617811
 21
6.4079562843
 31
0.0
  0
ARC
  5
15C
330
1F
100
AcDbEntity
  8
0
  6
Continuous
 62
     7
370
    30
100
AcDbCircle
 10
7.5488617512
 20
6.4079562212
 30
0.0
 40
0.0099999999999989
100
AcDbArc
 50
90.0
 51
180.0
  0
LINE
  5
15D
330
1F
100
AcDbEntity
  8
0
  6
Continuous
 62
     7
370
    30
100
AcDbLine
 10
7.5488616922
 20
6.4179561955
 30
0.0
 11
7.578861719
 21
6.4179561955
 31
0.0
  0
ARC
  5
15E
330
1F
100
AcDbEntity
  8
0
  6
Continuous
 62
     7
370
    30
100
AcDbCircle
 10
7.5788617512
 20
6.4079562212
 30
0.0
 40
0.0099999999999998
100
AcDbArc
 50
0.0
 51
90.0
  0
LINE
  5
15F
330
1F
100
AcDbEntity
  8
0
  6
Continuous
 62
     7
370
    30
100
AcDbLine
 10
7.5888617768
 20
6.4079562843
 30
0.0
 11
7.5888617768
 21
5.6169562287
 31
0.0
  0
ARC
  5
160
330
1F
100
AcDbEntity
  8
0
  6
Continuous
 62
     7
370
    30
100
AcDbCircle
 10
7.6038617512
 20
5.6169562212
 30
0.0
 40
0.0150000000000006
100
AcDbArc
 50
180.0
 51
270.0
  0
LINE
  5
161
330
1F
100
AcDbEntity
  8
0
  6
Continuous
 62
     7
370
    30
100
AcDbLine
 10
7.6038617902
 20
5.6019562153
 30
0.0
 11
7.6363617214
 21
5.6019562153
 31
0.0
  0
ARC
  5
162
330
1F
100
AcDbEntity
  8
0
  6
Continuous
 62
     7
370
    30
100
AcDbCircle
 10
7.6363617512
 20
5.6169562212
 30
0.0
 40
0.0150000000000006
100
AcDbArc
 50
270.0
 51
0.0
  0
LINE
  5
163
330
1F
100
AcDbEntity
  8
0
  6
Continuous
 62
     7
370
    30
100
AcDbLine
 10
7.6513617348
 20
5.6169562287
 30
0.0
 11
7.6513617348
 21
5.6557062144
 31
0.0
  0
ARC
  5
164
330
1F
100
AcDbEntity
  8
0
  6
Continuous
 62
     7
370
    30
100
AcDbCircle
 10
7.6663617512
 20
5.6557062212
 30
0.0
 40
0.0149999999999997
100
AcDbArc
 50
90.0
 51
180.0
  0
LINE
  5
165
330
1F
100
AcDbEntity
  8
0
  6
Continuous
 62
     7
370
    30
100
AcDbLine
 10
7.6663617482
 20
5.6707062278
 30
0.0
 11
7.6863617172
 21
5.6707062278
 31
0.0
  0
ARC
  5
166
330
1F
100
AcDbEntity
  8
0
  6
Continuous
 62
     7
370
    30
100
AcDbCircle
 10
7.6863617512
 20
5.6557062212
 30
0.0
 40
0.0150000000000006
100
AcDbArc
 50
0.0
 51
90.0
  0
LINE
  5
167
330
1F
100
AcDbEntity
  8
0
  6
Continuous
 62
     7
370
    30
100
AcDbLine
 10
7.7013617305
 20
5.6557062144
 30
0.0
 11
7.7013617305
 21
5.4982062205
 31
0.0
  0
ARC
  5
168
330
1F
100
AcDbEntity
  8
0
  6
Continuous
 62
     7
370
    30
100
AcDbCircle
 10
7.6863617512
 20
5.4982062212
 30
0.0
 40
0.0150000000000006
100
AcDbArc
 50
270.0
 51
0.0
  0
LINE
  5
169
330
1F
100
AcDbEntity
  8
0
  6
Continuous
 62
     7
370
    30
100
AcDbLine
 10
7.6863617172
 20
5.4832062071
 30
0.0
 11
7.6663617482
 21
5.4832062071
 31
0.0
  0
ARC
  5
16A
330
1F
100
AcDbEntity
  8
0
  6
Continuous
 62
     7
370
    30
100
AcDbCircle
 10
7.6663617512
 20
5.4982062212
 30
0.0
 40
0.0149999999999997
100
AcDbArc
 50
180.0
 51
270.0
  0
LINE
  5
16B
330
1F
100
AcDbEntity
  8
0
  6
Continuous
 62
     7
370
    30
100
AcDbLine
 10
7.6513617348
 20
5.4982062205
 30
0.0
 11
7.6513617348
 21
5.5369562062
 31
0.0
  0
ARC
  5
16C
330
1F
100
AcDbEntity
  8
0
  6
Continuous
 62
     7
370
    30
100
AcDbCircle
 10
7.6363617512
 20
5.5369562212
 30
0.0
 40
0.0149999999999997
100
AcDbArc
 50
0.0
 51
90.0
  0
LINE
  5
16D
330
1F
100
AcDbEntity
  8
0
  6
Continuous
 62
     7
370
    30
100
AcDbLine
 10
7.6363617214
 20
5.5519562196
 30
0.0
 11
7.6038617902
 21
5.5519562196
 31
0.0
  0
ARC
  5
16E
330
1F
100
AcDbEntity
  8
0
  6
Continuous
 62
     7
370
    30
100
AcDbCircle
 10
7.6038617512
 20
5.5369562212
 30
0.0
 40
0.0149999999999997
100
AcDbArc
 50
90.0
 51
180.0
  0
LINE
  5
16F
330
1F
100
AcDbEntity
  8
0
  6
Continuous
 62
     7
370
    30
100
AcDbLine
 10
7.5888617768
 20
5.5369562062
 30
0.0
 11
7.5888617768
 21
4.941956213
 31
0.0
  0
ARC
  5
170
330
1F
100
AcDbEntity
  8
0
  6
Continuous
 62
     7
370
    30
100
AcDbCircle
 10
7.6038617512
 20
4.9419562212
 30
0.0
 40
0.0149999999999997
100
AcDbArc
 50
180.0
 51
270.0
  0
LINE
  5
171
330
1F
100
AcDbEntity
  8
0
  6
Continuous
 62
     7
370
    30
100
AcDbLine
 10
7.6038617902
 20
4.9269562363
 30
0.0
 11
7.6363617214
 21
4.9269562363
 31
0.0
  0
ARC
  5
172
330
1F
100
AcDbEntity
  8
0
  6
Continuous
 62
     7
370
    30
100
AcDbCircle
 10
7.6363617512
 20
4.9419562212
 30
0.0
 40
0.0149999999999997
100
AcDbArc
 50
270.0
 51
0.0
  0
LINE
  5
173
330
1F
100
AcDbEntity
  8
0
  6
Continuous
 62
     7
370
    30
100
AcDbLine
 10
7.6513617348
 20
4.941956213
 30
0.0
 11
7.6513617348
 21
4.9807062354
 31
0.0
  0
ARC
  5
174
330
1F
100
AcDbEntity
  8
0
  6
Continuous
 62
     7
370
    30
100
AcDbCircle
 10
7.6663617512
 20
4.9807062212
 30
0.0
 40
0.0150000000000015
100
AcDbArc
 50
90.0
 51
180.0
  0
LINE
  5
175
330
1F
100
AcDbEntity
  8
0
  6
Continuous
 62
     7
370
    30
100
AcDbLine
 10
7.6663617482
 20
4.9957062121
 30
0.0
 11
7.6863617172
 21
4.9957062121
 31
0.0
  0
ARC
  5
176
330
1F
100
AcDbEntity
  8
0
  6
Continuous
 62
     7
370
    30
100
AcDbCircle
 10
7.6863617512
 20
4.9807062212
 30
0.0
 40
0.0150000000000015
100
AcDbArc
 50
0.0
 51
90.0
  0
LINE
  5
177
330
1F
100
AcDbEntity
  8
0
  6
Continuous
 62
     7
370
    30
100
AcDbLine
 10
7.7013617305
 20
4.9807062354
 30
0.0
 11
7.7013617305
 21
4.8919562173
 31
0.0
  0
ARC
  5
178
330
1F
100
AcDbEntity
  8
0
  6
Continuous
 62
     7
370
    30
100
AcDbCircle
 10
7.6863617512
 20
4.8919562212
 30
0.0
 40
0.0150000000000006
100
AcDbArc
 50
270.0
 51
0.0
  0
LINE
  5
179
330
1F
100
AcDbEntity
  8
0
  6
Continuous
 62
     7
370
    30
100
AcDbLine
 10
7.6863617172
 20
4.8769562222
 30
0.0
 11
7.6038617902
 21
4.8769562222
 31
0.0
  0
ARC
  5
17A
330
1F
100
AcDbEntity
  8
0
  6
Continuous
 62
     7
370
    30
100
AcDbCircle
 10
7.6038617512
 20
4.8619562212
 30
0.0
 40
0.0150000000000006
100
AcDbArc
 50
90.0
 51
180.0
  0
LINE
  5
17B
330
1F
100
AcDbEntity
  8
0
  6
Continuous
 62
     7
370
    30
100
AcDbLine
 10
7.5888617768
 20
4.8619562272
 30
0.0
 11
7.5888617768
 21
4.6709562211
 31
0.0
  0
ARC
  5
17C
330
1F
100
AcDbEntity
  8
0
  6
Continuous
 62
     7
370
    30
100
AcDbCircle
 10
7.6038617512
 20
4.6709562212
 30
0.0
 40
0.0149999999999997
100
AcDbArc
 50
180.0
 51
270.0
  0
LINE
  5
17D
330
1F
100
AcDbEntity
  8
0
  6
Continuous
 62
     7
370
    30
100
AcDbLine
 10
7.6038617902
 20
4.6559562215
 30
0.0
 11
8.7988617321
 21
4.6559562215
 31
0.0
  0
ARC
  5
17E
330
1F
100
AcDbEntity
  8
0
  6
Continuous
 62
     7
370
    30
100
AcDbCircle
 10
8.7988617512
 20
4.6409562212
 30
0.0
 40
0.0150000000000006
100
AcDbArc
 50
0.0
 51
90.0
  0
LINE
  5
17F
330
1F
100
AcDbEntity
  8
0
  6
Continuous
 62
     7
370
    30
100
AcDbLine
 10
8.8138617455
 20
4.6409562219
 30
0.0
 11
8.8138617455
 21
4.6307545181
 31
0.0
  0
ARC
  5
180
330
1F
100
AcDbEntity
  8
0
  6
Continuous
 62
     7
370
    30
100
AcDbCircle
 10
8.7988617512
 20
4.6307545189
 30
0.0
 40
0.0150000000000011
100
AcDbArc
 50
270.77564932
 51
0.0
  0
LINE
  5
181
330
1F
100
AcDbEntity
  8
0
  6
Continuous
 62
     7
370
    30
100
AcDbLine
 10
7.188861811
 20
4.6409562219
 30
0.0
 11
7.188861811
 21
4.5679562206
 31
0.0
  0
ARC
  5
182
330
1F
100
AcDbEntity
  8
0
  6
Continuous
 62
     7
370
    30
100
AcDbCircle
 10
7.1938617512
 20
4.5679562212
 30
0.0
 40
0.0049999999999999
100
AcDbArc
 50
180.0
 51
270.0
  0
ARC
  5
183
330
1F
100
AcDbEntity
  8
0
  6
Continuous
 62
     7
370
    30
100
AcDbCircle
 10
7.2038617512
 20
4.6409562212
 30
0.0
 40
0.0150000000000006
100
AcDbArc
 50
90.0
 51
180.0
  0
LINE
  5
184
330
1F
100
AcDbEntity
  8
0
  6
Continuous
 62
     7
370
    30
100
AcDbLine
 10
5.0825985894
 20
5.6675637108
 30
0.0
 11
5.0794927569
 21
5.655972558
 31
0.0
  0
LINE
  5
185
330
1F
100
AcDbEntity
  8
0
  6
Continuous
 62
     7
370
    30
100
AcDbLine
 10
5.1279970999
 20
5.6553991713
 30
0.0
 11
5.0825985894
 21
5.6675637108
 31
0.0
  0
ARC
  5
186
330
1F
100
AcDbEntity
  8
0
  6
Continuous
 62
     7
370
    30
100
AcDbCircle
 10
5.1313617512
 20
5.6679562212
 30
0.0
 40
0.0130000000000026
100
AcDbArc
 50
255.0
 51
90.0
  0
LINE
  5
187
330
1F
100
AcDbEntity
  8
0
  6
Continuous
 62
     7
370
    30
100
AcDbLine
 10
5.0988617549
 20
5.6809562027
 30
0.0
 11
5.1313617594
 21
5.6809562027
 31
0.0
  0
ARC
  5
188
330
1F
100
AcDbEntity
  8
0
  6
Continuous
 62
     7
370
    30
100
AcDbCircle
 10
5.0988617512
 20
5.7739562212
 30
0.0
 40
0.0930000000000014
100
AcDbArc
 50
109.6973630774
 51
270.0
  0
LINE
  5
189
330
1F
100
AcDbEntity
  8
0
  6
Continuous
 62
     7
370
    30
100
AcDbLine
 10
5.1854987615
 20
5.9037523223
 30
0.0
 11
5.0675159303
 21
5.8615144235
 31
0.0
  0
ARC
  5
18A
330
1F
100
AcDbEntity
  8
0
  6
Continuous
 62
     7
370
    30
100
AcDbCircle
 10
5.1814541406
 20
5.9150501047
 30
0.0
 40
0.0119999999999998
100
AcDbArc
 50
289.6973630774
 51
322.2281218619
  0
ARC
  5
18B
330
1F
100
AcDbEntity
  8
0
  6
Continuous
 62
     7
370
    30
100
AcDbCircle
 10
5.3138617512
 20
5.8124482847
 30
0.0
 40
0.1555079365079416
100
AcDbArc
 50
37.7718781381
 51
142.2281218619
  0
ARC
  5
18C
330
1F
100
AcDbEntity
  8
0
  6
Continuous
 62
     7
370
    30
100
AcDbCircle
 10
5.4462693617
 20
5.9150501047
 30
0.0
 40
0.0120000000000001
100
AcDbArc
 50
217.7718781381
 51
250.3026369226
  0
LINE
  5
18D
330
1F
100
AcDbEntity
  8
0
  6
Continuous
 62
     7
370
    30
100
AcDbLine
 10
5.560207572
 20
5.8615144235
 30
0.0
 11
5.4422247408
 21
5.9037523223
 31
0.0
  0
ARC
  5
18E
330
1F
100
AcDbEntity
  8
0
  6
Continuous
 62
     7
370
    30
100
AcDbCircle
 10
5.5288617512
 20
5.7739562212
 30
0.0
 40
0.0930000000000026
100
AcDbArc
 50
270.0
 51
70.3026369226
  0
LINE
  5
18F
330
1F
100
AcDbEntity
  8
0
  6
Continuous
 62
     7
370
    30
100
AcDbLine
 10
5.4963617429
 20
5.6809562027
 30
0.0
 11
5.5288617475
 21
5.6809562027
 31
0.0
  0
ARC
  5
190
330
1F
100
AcDbEntity
  8
0
  6
Continuous
 62
     7
370
    30
100
AcDbCircle
 10
5.4963617512
 20
5.6679562212
 30
0.0
 40
0.0130000000000004
100
AcDbArc
 50
90.0
 51
285.0
  0
LINE
  5
191
330
1F
100
AcDbEntity
  8
0
  6
Continuous
 62
     7
370
    30
100
AcDbLine
 10
5.5451249129
 20
5.6675637108
 30
0.0
 11
5.4997264024
 21
5.6553991713
 31
0.0
  0
LINE
  5
192
330
1F
100
AcDbEntity
  8
0
  6
Continuous
 62
     7
370
    30
100
AcDbLine
 10
5.5482307454
 20
5.655972558
 30
0.0
 11
5.5451249129
 21
5.6675637108
 31
0.0
  0
LINE
  5
193
330
1F
100
AcDbEntity
  8
0
  6
Continuous
 62
     7
370
    30
100
AcDbLine
 10
5.5482307454
 20
5.655972558
 30
0.0
 11
5.5028322348
 21
5.6438080918
 31
0.0
  0
ARC
  5
194
330
1F
100
AcDbEntity
  8
0
  6
Continuous
 62
     7
370
    30
100
AcDbCircle
 10
5.4963617512
 20
5.6679562212
 30
0.0
 40
0.0250000000000012
100
AcDbArc
 50
90.0
 51
285.0
  0
LINE
  5
195
330
1F
100
AcDbEntity
  8
0
  6
Continuous
 62
     7
370
    30
100
AcDbLine
 10
5.4963617429
 20
5.6929562574
 30
0.0
 11
5.5288617475
 21
5.6929562574
 31
0.0
  0
ARC
  5
196
330
1F
100
AcDbEntity
  8
0
  6
Continuous
 62
     7
370
    30
100
AcDbCircle
 10
5.5288617512
 20
5.7739562212
 30
0.0
 40
0.0810000000000022
100
AcDbArc
 50
270.0
 51
70.3026369226
  0
LINE
  5
197
330
1F
100
AcDbEntity
  8
0
  6
Continuous
 62
     7
370
    30
100
AcDbLine
 10
5.5561629554
 20
5.8502165274
 30
0.0
 11
5.438180115
 21
5.8924544261
 31
0.0
  0
ARC
  5
198
330
1F
100
AcDbEntity
  8
0
  6
Continuous
 62
     7
370
    30
100
AcDbCircle
 10
5.4462693617
 20
5.9150501047
 30
0.0
 40
0.0240000000000026
100
AcDbArc
 50
217.7718781381
 51
250.3026369226
  0
ARC
  5
199
330
1F
100
AcDbEntity
  8
0
  6
Continuous
 62
     7
370
    30
100
AcDbCircle
 10
5.3138617512
 20
5.8124482847
 30
0.0
 40
0.1435079365079391
100
AcDbArc
 50
37.7718781381
 51
142.2281218619
  0
ARC
  5
19A
330
1F
100
AcDbEntity
  8
0
  6
Continuous
 62
     7
370
    30
100
AcDbCircle
 10
5.1814541406
 20
5.9150501047
 30
0.0
 40
0.0240000000000023
100
AcDbArc
 50
289.6973630774
 51
322.2281218619
  0
LINE
  5
19B
330
1F
100
AcDbEntity
  8
0
  6
Continuous
 62
     7
370
    30
100
AcDbLine
 10
5.1895433873
 20
5.8924544261
 30
0.0
 11
5.0715605469
 21
5.8502165274
 31
0.0
  0
ARC
  5
19C
330
1F
100
AcDbEntity
  8
0
  6
Continuous
 62
     7
370
    30
100
AcDbCircle
 10
5.0988617512
 20
5.7739562212
 30
0.0
 40
0.0810000000000013
100
AcDbArc
 50
109.6973630774
 51
270.0
  0
LINE
  5
19D
330
1F
100
AcDbEntity
  8
0
  6
Continuous
 62
     7
370
    30
100
AcDbLine
 10
5.0988617549
 20
5.6929562574
 30
0.0
 11
5.1313617594
 21
5.6929562574
 31
0.0
  0
ARC
  5
19E
330
1F
100
AcDbEntity
  8
0
  6
Continuous
 62
     7
370
    30
100
AcDbCircle
 10
5.1313617512
 20
5.6679562212
 30
0.0
 40
0.0250000000000021
100
AcDbArc
 50
255.0
 51
90.0
  0
LINE
  5
19F
330
1F
100
AcDbEntity
  8
0
  6
Continuous
 62
     7
370
    30
100
AcDbLine
 10
5.1248912675
 20
5.6438080918
 30
0.0
 11
5.0794927569
 21
5.655972558
 31
0.0
  0
LINE
  5
1A0
330
1F
100
AcDbEntity
  8
0
  6
Continuous
 62
     7
370
    30
100
AcDbLine
 10
6.5825985346
 20
5.6675637108
 30
0.0
 11
6.5794927571
 21
5.655972558
 31
0.0
  0
LINE
  5
1A1
330
1F
100
AcDbEntity
  8
0
  6
Continuous
 62
     7
370
    30
100
AcDbLine
 10
6.6279970635
 20
5.6553991713
 30
0.0
 11
6.5825985346
 21
5.6675637108
 31
0.0
  0
ARC
  5
1A2
330
1F
100
AcDbEntity
  8
0
  6
Continuous
 62
     7
370
    30
100
AcDbCircle
 10
6.6313617512
 20
5.6679562212
 30
0.0
 40
0.0130000000000026
100
AcDbArc
 50
255.0
 51
90.0
  0
LINE
  5
1A3
330
1F
100
AcDbEntity
  8
0
  6
Continuous
 62
     7
370
    30
100
AcDbLine
 10
6.5988617734
 20
5.6809562027
 30
0.0
 11
6.6313617046
 21
5.6809562027
 31
0.0
  0
ARC
  5
1A4
330
1F
100
AcDbEntity
  8
0
  6
Continuous
 62
     7
370
    30
100
AcDbCircle
 10
6.5988617512
 20
5.7739562212
 30
0.0
 40
0.0930000000000017
100
AcDbArc
 50
109.6973630774
 51
270.0
  0
LINE
  5
1A5
330
1F
100
AcDbEntity
  8
0
  6
Continuous
 62
     7
370
    30
100
AcDbLine
 10
6.6854988259
 20
5.9037523223
 30
0.0
 11
6.5675159488
 21
5.8615144235
 31
0.0
  0
ARC
  5
1A6
330
1F
100
AcDbEntity
  8
0
  6
Continuous
 62
     7
370
    30
100
AcDbCircle
 10
6.6814541406
 20
5.9150501047
 30
0.0
 40
0.0120000000000001
100
AcDbArc
 50
289.6973630774
 51
322.2281218619
  0
ARC
  5
1A7
330
1F
100
AcDbEntity
  8
0
  6
Continuous
 62
     7
370
    30
100
AcDbCircle
 10
6.8138617512
 20
5.8124482847
 30
0.0
 40
0.1555079365079416
100
AcDbArc
 50
37.7718781381
 51
142.2281218619
  0
ARC
  5
1A8
330
1F
100
AcDbEntity
  8
0
  6
Continuous
 62
     7
370
    30
100
AcDbCircle
 10
6.9462693617
 20
5.9150501047
 30
0.0
 40
0.0120000000000004
100
AcDbArc
 50
217.7718781381
 51
250.3026369226
  0
LINE
  5
1A9
330
1F
100
AcDbEntity
  8
0
  6
Continuous
 62
     7
370
    30
100
AcDbLine
 10
7.0602075905
 20
5.8615144235
 30
0.0
 11
6.9422247135
 21
5.9037523223
 31
0.0
  0
ARC
  5
1AA
330
1F
100
AcDbEntity
  8
0
  6
Continuous
 62
     7
370
    30
100
AcDbCircle
 10
7.0288617512
 20
5.7739562212
 30
0.0
 40
0.0930000000000021
100
AcDbArc
 50
270.0
 51
70.3026369226
  0
LINE
  5
1AB
330
1F
100
AcDbEntity
  8
0
  6
Continuous
 62
     7
370
    30
100
AcDbLine
 10
6.9963616881
 20
5.6809562027
 30
0.0
 11
7.028861766
 21
5.6809562027
 31
0.0
  0
ARC
  5
1AC
330
1F
100
AcDbEntity
  8
0
  6
Continuous
 62
     7
370
    30
100
AcDbCircle
 10
6.9963617512
 20
5.6679562212
 30
0.0
 40
0.0129999999999999
100
AcDbArc
 50
90.0
 51
285.0
  0
LINE
  5
1AD
330
1F
100
AcDbEntity
  8
0
  6
Continuous
 62
     7
370
    30
100
AcDbLine
 10
7.0451248581
 20
5.6675637108
 30
0.0
 11
6.9997263292
 21
5.6553991713
 31
0.0
  0
LINE
  5
1AE
330
1F
100
AcDbEntity
  8
0
  6
Continuous
 62
     7
370
    30
100
AcDbLine
 10
7.0482307822
 20
5.655972558
 30
0.0
 11
7.0451248581
 21
5.6675637108
 31
0.0
  0
LINE
  5
1AF
330
1F
100
AcDbEntity
  8
0
  6
Continuous
 62
     7
370
    30
100
AcDbLine
 10
7.0482307822
 20
5.655972558
 30
0.0
 11
7.0028322534
 21
5.6438080918
 31
0.0
  0
ARC
  5
1B0
330
1F
100
AcDbEntity
  8
0
  6
Continuous
 62
     7
370
    30
100
AcDbCircle
 10
6.9963617512
 20
5.6679562212
 30
0.0
 40
0.0250000000000012
100
AcDbArc
 50
90.0
 51
285.0
  0
LINE
  5
1B1
330
1F
100
AcDbEntity
  8
0
  6
Continuous
 62
     7
370
    30
100
AcDbLine
 10
6.9963616881
 20
5.6929562574
 30
0.0
 11
7.028861766
 21
5.6929562574
 31
0.0
  0
ARC
  5
1B2
330
1F
100
AcDbEntity
  8
0
  6
Continuous
 62
     7
370
    30
100
AcDbCircle
 10
7.0288617512
 20
5.7739562212
 30
0.0
 40
0.0810000000000022
100
AcDbArc
 50
270.0
 51
70.3026369226
  0
LINE
  5
1B3
330
1F
100
AcDbEntity
  8
0
  6
Continuous
 62
     7
370
    30
100
AcDbLine
 10
7.0561630106
 20
5.8502165274
 30
0.0
 11
6.9381801336
 21
5.8924544261
 31
0.0
  0
ARC
  5
1B4
330
1F
100
AcDbEntity
  8
0
  6
Continuous
 62
     7
370
    30
100
AcDbCircle
 10
6.9462693617
 20
5.9150501047
 30
0.0
 40
0.0240000000000029
100
AcDbArc
 50
217.7718781381
 51
250.3026369226
  0
ARC
  5
1B5
330
1F
100
AcDbEntity
  8
0
  6
Continuous
 62
     7
370
    30
100
AcDbCircle
 10
6.8138617512
 20
5.8124482847
 30
0.0
 40
0.1435079365079394
100
AcDbArc
 50
37.7718781381
 51
142.2281218619
  0
ARC
  5
1B6
330
1F
100
AcDbEntity
  8
0
  6
Continuous
 62
     7
370
    30
100
AcDbCircle
 10
6.6814541406
 20
5.9150501047
 30
0.0
 40
0.024000000000002
100
AcDbArc
 50
289.6973630774
 51
322.2281218619
  0
LINE
  5
1B7
330
1F
100
AcDbEntity
  8
0
  6
Continuous
 62
     7
370
    30
100
AcDbLine
 10
6.6895434058
 20
5.8924544261
 30
0.0
 11
6.5715605288
 21
5.8502165274
 31
0.0
  0
ARC
  5
1B8
330
1F
100
AcDbEntity
  8
0
  6
Continuous
 62
     7
370
    30
100
AcDbCircle
 10
6.5988617512
 20
5.7739562212
 30
0.0
 40
0.0810000000000016
100
AcDbArc
 50
109.6973630774
 51
270.0
  0
LINE
  5
1B9
330
1F
100
AcDbEntity
  8
0
  6
Continuous
 62
     7
370
    30
100
AcDbLine
 10
6.5988617734
 20
5.6929562574
 30
0.0
 11
6.6313617046
 21
5.6929562574
 31
0.0
  0
ARC
  5
1BA
330
1F
100
AcDbEntity
  8
0
  6
Continuous
 62
     7
370
    30
100
AcDbCircle
 10
6.6313617512
 20
5.6679562212
 30
0.0
 40
0.0250000000000021
100
AcDbArc
 50
255.0
 51
90.0
  0
LINE
  5
1BB
330
1F
100
AcDbEntity
  8
0
  6
Continuous
 62
     7
370
    30
100
AcDbLine
 10
6.624891286
 20
5.6438080918
 30
0.0
 11
6.5794927571
 21
5.655972558
 31
0.0
  0
LINE
  5
1BC
330
1F
100
AcDbEntity
  8
0
  6
Continuous
 62
     7
370
    30
100
AcDbLine
 10
3.5825986442
 20
5.6675637108
 30
0.0
 11
3.5794927201
 21
5.655972558
 31
0.0
  0
LINE
  5
1BD
330
1F
100
AcDbEntity
  8
0
  6
Continuous
 62
     7
370
    30
100
AcDbLine
 10
3.6279971731
 20
5.6553991713
 30
0.0
 11
3.5825986442
 21
5.6675637108
 31
0.0
  0
ARC
  5
1BE
330
1F
100
AcDbEntity
  8
0
  6
Continuous
 62
     7
370
    30
100
AcDbCircle
 10
3.6313617512
 20
5.6679562212
 30
0.0
 40
0.0130000000000026
100
AcDbArc
 50
255.0
 51
90.0
  0
LINE
  5
1BF
330
1F
100
AcDbEntity
  8
0
  6
Continuous
 62
     7
370
    30
100
AcDbLine
 10
3.5988617363
 20
5.6809562027
 30
0.0
 11
3.6313618142
 21
5.6809562027
 31
0.0
  0
ARC
  5
1C0
330
1F
100
AcDbEntity
  8
0
  6
Continuous
 62
     7
370
    30
100
AcDbCircle
 10
3.5988617512
 20
5.7739562212
 30
0.0
 40
0.0930000000000017
100
AcDbArc
 50
109.6973630774
 51
270.0
  0
LINE
  5
1C1
330
1F
100
AcDbEntity
  8
0
  6
Continuous
 62
     7
370
    30
100
AcDbLine
 10
3.6854987888
 20
5.9037523223
 30
0.0
 11
3.5675159118
 21
5.8615144235
 31
0.0
  0
ARC
  5
1C2
330
1F
100
AcDbEntity
  8
0
  6
Continuous
 62
     7
370
    30
100
AcDbCircle
 10
3.6814541406
 20
5.9150501047
 30
0.0
 40
0.0119999999999999
100
AcDbArc
 50
289.6973630774
 51
322.2281218619
  0
ARC
  5
1C3
330
1F
100
AcDbEntity
  8
0
  6
Continuous
 62
     7
370
    30
100
AcDbCircle
 10
3.8138617512
 20
5.8124482847
 30
0.0
 40
0.1555079365079416
100
AcDbArc
 50
37.7718781381
 51
142.2281218619
  0
ARC
  5
1C4
330
1F
100
AcDbEntity
  8
0
  6
Continuous
 62
     7
370
    30
100
AcDbCircle
 10
3.9462693617
 20
5.9150501047
 30
0.0
 40
0.0120000000000002
100
AcDbArc
 50
217.7718781381
 51
250.3026369226
  0
LINE
  5
1C5
330
1F
100
AcDbEntity
  8
0
  6
Continuous
 62
     7
370
    30
100
AcDbLine
 10
4.0602075535
 20
5.8615144235
 30
0.0
 11
3.9422246764
 21
5.9037523223
 31
0.0
  0
ARC
  5
1C6
330
1F
100
AcDbEntity
  8
0
  6
Continuous
 62
     7
370
    30
100
AcDbCircle
 10
4.0288617512
 20
5.7739562212
 30
0.0
 40
0.0930000000000021
100
AcDbArc
 50
270.0
 51
70.3026369226
  0
LINE
  5
1C7
330
1F
100
AcDbEntity
  8
0
  6
Continuous
 62
     7
370
    30
100
AcDbLine
 10
3.9963617977
 20
5.6809562027
 30
0.0
 11
4.0288617289
 21
5.6809562027
 31
0.0
  0
ARC
  5
1C8
330
1F
100
AcDbEntity
  8
0
  6
Continuous
 62
     7
370
    30
100
AcDbCircle
 10
3.9963617512
 20
5.6679562212
 30
0.0
 40
0.0129999999999999
100
AcDbArc
 50
90.0
 51
285.0
  0
LINE
  5
1C9
330
1F
100
AcDbEntity
  8
0
  6
Continuous
 62
     7
370
    30
100
AcDbLine
 10
4.0482307452
 20
5.655972558
 30
0.0
 11
4.0451249677
 21
5.6675637108
 31
0.0
  0
LINE
  5
1CA
330
1F
100
AcDbEntity
  8
0
  6
Continuous
 62
     7
370
    30
100
AcDbLine
 10
4.0482307452
 20
5.655972558
 30
0.0
 11
4.0028322163
 21
5.6438080918
 31
0.0
  0
ARC
  5
1CB
330
1F
100
AcDbEntity
  8
0
  6
Continuous
 62
     7
370
    30
100
AcDbCircle
 10
3.9963617512
 20
5.6679562212
 30
0.0
 40
0.0250000000000012
100
AcDbArc
 50
90.0
 51
285.0
  0
LINE
  5
1CC
330
1F
100
AcDbEntity
  8
0
  6
Continuous
 62
     7
370
    30
100
AcDbLine
 10
3.9963617977
 20
5.6929562574
 30
0.0
 11
4.0288617289
 21
5.6929562574
 31
0.0
  0
ARC
  5
1CD
330
1F
100
AcDbEntity
  8
0
  6
Continuous
 62
     7
370
    30
100
AcDbCircle
 10
4.0288617512
 20
5.7739562212
 30
0.0
 40
0.0810000000000031
100
AcDbArc
 50
270.0
 51
70.3026369226
  0
LINE
  5
1CE
330
1F
100
AcDbEntity
  8
0
  6
Continuous
 62
     7
370
    30
100
AcDbLine
 10
4.0561629735
 20
5.8502165274
 30
0.0
 11
3.9381800965
 21
5.8924544261
 31
0.0
  0
ARC
  5
1CF
330
1F
100
AcDbEntity
  8
0
  6
Continuous
 62
     7
370
    30
100
AcDbCircle
 10
3.9462693617
 20
5.9150501047
 30
0.0
 40
0.0240000000000026
100
AcDbArc
 50
217.7718781381
 51
250.3026369226
  0
ARC
  5
1D0
330
1F
100
AcDbEntity
  8
0
  6
Continuous
 62
     7
370
    30
100
AcDbCircle
 10
3.8138617512
 20
5.8124482847
 30
0.0
 40
0.1435079365079391
100
AcDbArc
 50
37.7718781381
 51
142.2281218619
  0
ARC
  5
1D1
330
1F
100
AcDbEntity
  8
0
  6
Continuous
 62
     7
370
    30
100
AcDbCircle
 10
3.6814541406
 20
5.9150501047
 30
0.0
 40
0.0240000000000022
100
AcDbArc
 50
289.6973630774
 51
322.2281218619
  0
LINE
  5
1D2
330
1F
100
AcDbEntity
  8
0
  6
Continuous
 62
     7
370
    30
100
AcDbLine
 10
3.6895433687
 20
5.8924544261
 30
0.0
 11
3.5715604917
 21
5.8502165274
 31
0.0
  0
ARC
  5
1D3
330
1F
100
AcDbEntity
  8
0
  6
Continuous
 62
     7
370
    30
100
AcDbCircle
 10
3.5988617512
 20
5.7739562212
 30
0.0
 40
0.0810000000000016
100
AcDbArc
 50
109.6973630774
 51
270.0
  0
LINE
  5
1D4
330
1F
100
AcDbEntity
  8
0
  6
Continuous
 62
     7
370
    30
100
AcDbLine
 10
3.5988617363
 20
5.6929562574
 30
0.0
 11
3.6313618142
 21
5.6929562574
 31
0.0
  0
ARC
  5
1D5
330
1F
100
AcDbEntity
  8
0
  6
Continuous
 62
     7
370
    30
100
AcDbCircle
 10
3.6313617512
 20
5.6679562212
 30
0.0
 40
0.0250000000000021
100
AcDbArc
 50
255.0
 51
90.0
  0
LINE
  5
1D6
330
1F
100
AcDbEntity
  8
0
  6
Continuous
 62
     7
370
    30
100
AcDbLine
 10
3.624891249
 20
5.6438080918
 30
0.0
 11
3.5794927201
 21
5.655972558
 31
0.0
  0
LINE
  5
1D7
330
1F
100
AcDbEntity
  8
0
  6
Continuous
 62
     7
370
    30
100
AcDbLine
 10
4.0451249677
 20
5.6675637108
 30
0.0
 11
3.9997264388
 21
5.6553991713
 31
0.0
  0
ARC
  5
1D8
330
1F
100
AcDbEntity
  8
0
  6
Continuous
 62
     7
370
    30
100
AcDbCircle
 10
3.9718617512
 20
5.5807768085
 30
0.0
 40
0.032
100
AcDbArc
 50
0.0
 51
60.1644397768
  0
LINE
  5
1D9
330
1F
100
AcDbEntity
  8
0
  6
Continuous
 62
     7
370
    30
100
AcDbLine
 10
4.0038618044
 20
5.4629562477
 30
0.0
 11
4.0038618044
 21
5.58077684
 31
0.0
  0
ARC
  5
1DA
330
1F
100
AcDbEntity
  8
0
  6
Continuous
 62
     7
370
    30
100
AcDbCircle
 10
4.2718617512
 20
5.4629562212
 30
0.0
 40
0.2680000000000007
100
AcDbArc
 50
180.0
 51
243.2145316219
  0
ARC
  5
1DB
330
1F
100
AcDbEntity
  8
0
  6
Continuous
 62
     7
370
    30
100
AcDbCircle
 10
4.1308079429
 20
5.1835410763
 30
0.0
 40
0.0450000000000003
100
AcDbArc
 50
351.9770130931
 51
63.2145316219
  0
ARC
  5
1DC
330
1F
100
AcDbEntity
  8
0
  6
Continuous
 62
     7
370
    30
100
AcDbCircle
 10
3.8218617512
 20
5.2270870357
 30
0.0
 40
0.3569999999999998
100
AcDbArc
 50
278.8498830984
 51
351.9770130931
  0
ARC
  5
1DD
330
1F
100
AcDbEntity
  8
0
  6
Continuous
 62
     7
370
    30
100
AcDbCircle
 10
3.8718617512
 20
4.9059562212
 30
0.0
 40
0.032
100
AcDbArc
 50
180.0
 51
278.8498830984
  0
LINE
  5
1DE
330
1F
100
AcDbEntity
  8
0
  6
Continuous
 62
     7
370
    30
100
AcDbLine
 10
3.8398617656
 20
5.0359562138
 30
0.0
 11
3.8398617656
 21
4.9059562139
 31
0.0
  0
LINE
  5
1DF
330
1F
100
AcDbEntity
  8
0
  6
Continuous
 62
     7
370
    30
100
AcDbLine
 10
3.8398617656
 20
5.0359562138
 30
0.0
 11
3.8218617202
 21
5.0359562138
 31
0.0
  0
LINE
  5
1E0
330
1F
100
AcDbEntity
  8
0
  6
Continuous
 62
     7
370
    30
100
AcDbLine
 10
3.8218617202
 20
5.0359562138
 30
0.0
 11
3.8218617202
 21
4.9059562139
 31
0.0
  0
ARC
  5
1E1
330
1F
100
AcDbEntity
  8
0
  6
Continuous
 62
     7
370
    30
100
AcDbCircle
 10
3.8718617512
 20
4.9059562212
 30
0.0
 40
0.0500000000000003
100
AcDbArc
 50
180.0
 51
278.8498830984
  0
ARC
  5
1E2
330
1F
100
AcDbEntity
  8
0
  6
Continuous
 62
     7
370
    30
100
AcDbCircle
 10
3.8218617512
 20
5.2270870357
 30
0.0
 40
0.3750000000000006
100
AcDbArc
 50
278.8498830984
 51
351.9770130931
  0
ARC
  5
1E3
330
1F
100
AcDbEntity
  8
0
  6
Continuous
 62
     7
370
    30
100
AcDbCircle
 10
4.1308079429
 20
5.1835410763
 30
0.0
 40
0.0629999999999997
100
AcDbArc
 50
351.9770130931
 51
63.2145316219
  0
ARC
  5
1E4
330
1F
100
AcDbEntity
  8
0
  6
Continuous
 62
     7
370
    30
100
AcDbCircle
 10
4.2718617512
 20
5.4629562212
 30
0.0
 40
0.2500000000000012
100
AcDbArc
 50
180.0
 51
243.2145316219
  0
LINE
  5
1E5
330
1F
100
AcDbEntity
  8
0
  6
Continuous
 62
     7
370
    30
100
AcDbLine
 10
4.0218617031
 20
5.4629562477
 30
0.0
 11
4.0218617031
 21
5.58077684
 31
0.0
  0
ARC
  5
1E6
330
1F
100
AcDbEntity
  8
0
  6
Continuous
 62
     7
370
    30
100
AcDbCircle
 10
3.9718617512
 20
5.5807768085
 30
0.0
 40
0.0500000000000002
100
AcDbArc
 50
0.0
 51
60.1644397768
  0
ARC
  5
1E7
330
1F
100
AcDbEntity
  8
0
  6
Continuous
 62
     7
370
    30
100
AcDbCircle
 10
4.0218617512
 20
5.6679562212
 30
0.0
 40
0.0505000000000004
100
AcDbArc
 50
70.0
 51
240.1644397768
  0
LINE
  5
1E8
330
1F
100
AcDbEntity
  8
0
  6
Continuous
 62
     7
370
    30
100
AcDbLine
 10
4.0391337036
 20
5.7154106647
 30
0.0
 11
4.0452901125
 21
5.7323251693
 31
0.0
  0
ARC
  5
1E9
330
1F
100
AcDbEntity
  8
0
  6
Continuous
 62
     7
370
    30
100
AcDbCircle
 10
4.0218617512
 20
5.6679562212
 30
0.0
 40
0.0685000000000007
100
AcDbArc
 50
70.0
 51
240.1644397768
  0
ARC
  5
1EA
330
1F
100
AcDbEntity
  8
0
  6
Continuous
 62
     7
370
    30
100
AcDbCircle
 10
5.1558617512
 20
5.5807768085
 30
0.0
 40
0.0320000000000012
100
AcDbArc
 50
119.8355602232
 51
180.0
  0
LINE
  5
1EB
330
1F
100
AcDbEntity
  8
0
  6
Continuous
 62
     7
370
    30
100
AcDbLine
 10
5.1238617527
 20
5.4629562477
 30
0.0
 11
5.1238617527
 21
5.58077684
 31
0.0
  0
ARC
  5
1EC
330
1F
100
AcDbEntity
  8
0
  6
Continuous
 62
     7
370
    30
100
AcDbCircle
 10
4.8558617512
 20
5.4629562212
 30
0.0
 40
0.2680000000000007
100
AcDbArc
 50
296.7854683781
 51
0.0
  0
ARC
  5
1ED
330
1F
100
AcDbEntity
  8
0
  6
Continuous
 62
     7
370
    30
100
AcDbCircle
 10
4.9969155594
 20
5.1835410763
 30
0.0
 40
0.0450000000000007
100
AcDbArc
 50
116.7854683781
 51
188.0229869069
  0
ARC
  5
1EE
330
1F
100
AcDbEntity
  8
0
  6
Continuous
 62
     7
370
    30
100
AcDbCircle
 10
5.3058617512
 20
5.2270870357
 30
0.0
 40
0.3570000000000006
100
AcDbArc
 50
188.0229869069
 51
261.1501169016
  0
ARC
  5
1EF
330
1F
100
AcDbEntity
  8
0
  6
Continuous
 62
     7
370
    30
100
AcDbCircle
 10
5.2558617512
 20
4.9059562212
 30
0.0
 40
0.0320000000000004
100
AcDbArc
 50
261.1501169016
 51
0.0
  0
LINE
  5
1F0
330
1F
100
AcDbEntity
  8
0
  6
Continuous
 62
     7
370
    30
100
AcDbLine
 10
5.2878617503
 20
5.0359562138
 30
0.0
 11
5.2878617503
 21
4.9059562139
 31
0.0
  0
LINE
  5
1F1
330
1F
100
AcDbEntity
  8
0
  6
Continuous
 62
     7
370
    30
100
AcDbLine
 10
5.2878617503
 20
5.0359562138
 30
0.0
 11
5.305861751
 21
5.0359562138
 31
0.0
  0
LINE
  5
1F2
330
1F
100
AcDbEntity
  8
0
  6
Continuous
 62
     7
370
    30
100
AcDbLine
 10
5.305861751
 20
5.0359562138
 30
0.0
 11
5.305861751
 21
4.9059562139
 31
0.0
  0
ARC
  5
1F3
330
1F
100
AcDbEntity
  8
0
  6
Continuous
 62
     7
370
    30
100
AcDbCircle
 10
5.2558617512
 20
4.9059562212
 30
0.0
 40
0.0500000000000004
100
AcDbArc
 50
261.1501169016
 51
0.0
  0
ARC
  5
1F4
330
1F
100
AcDbEntity
  8
0
  6
Continuous
 62
     7
370
    30
100
AcDbCircle
 10
5.3058617512
 20
5.2270870357
 30
0.0
 40
0.3750000000000006
100
AcDbArc
 50
188.0229869069
 51
261.1501169016
  0
ARC
  5
1F5
330
1F
100
AcDbEntity
  8
0
  6
Continuous
 62
     7
370
    30
100
AcDbCircle
 10
4.9969155594
 20
5.1835410763
 30
0.0
 40
0.0629999999999999
100
AcDbArc
 50
116.7854683781
 51
188.0229869069
  0
ARC
  5
1F6
330
1F
100
AcDbEntity
  8
0
  6
Continuous
 62
     7
370
    30
100
AcDbCircle
 10
4.8558617512
 20
5.4629562212
 30
0.0
 40
0.2500000000000009
100
AcDbArc
 50
296.7854683781
 51
0.0
  0
LINE
  5
1F7
330
1F
100
AcDbEntity
  8
0
  6
Continuous
 62
     7
370
    30
100
AcDbLine
 10
5.105861744
 20
5.4629562477
 30
0.0
 11
5.105861744
 21
5.58077684
 31
0.0
  0
ARC
  5
1F8
330
1F
100
AcDbEntity
  8
0
  6
Continuous
 62
     7
370
    30
100
AcDbCircle
 10
5.1558617512
 20
5.5807768085
 30
0.0
 40
0.0500000000000005
100
AcDbArc
 50
119.8355602232
 51
180.0
  0
ARC
  5
1F9
330
1F
100
AcDbEntity
  8
0
  6
Continuous
 62
     7
370
    30
100
AcDbCircle
 10
5.1058617512
 20
5.6679562212
 30
0.0
 40
0.0505000000000004
100
AcDbArc
 50
299.8355602232
 51
110.0
  0
LINE
  5
1FA
330
1F
100
AcDbEntity
  8
0
  6
Continuous
 62
     7
370
    30
100
AcDbLine
 10
5.0885897252
 20
5.7154106647
 30
0.0
 11
5.0824333713
 21
5.7323251693
 31
0.0
  0
ARC
  5
1FB
330
1F
100
AcDbEntity
  8
0
  6
Continuous
 62
     7
370
    30
100
AcDbCircle
 10
5.1058617512
 20
5.6679562212
 30
0.0
 40
0.0684999999999995
100
AcDbArc
 50
299.8355602232
 51
110.0
  0
ARC
  5
1FC
330
1F
100
AcDbEntity
  8
0
  6
Continuous
 62
     7
370
    30
100
AcDbCircle
 10
5.4718617512
 20
5.5807768085
 30
0.0
 40
0.0320000000000008
100
AcDbArc
 50
0.0
 51
60.1644397768
  0
LINE
  5
1FD
330
1F
100
AcDbEntity
  8
0
  6
Continuous
 62
     7
370
    30
100
AcDbLine
 10
5.5038617496
 20
5.4629562477
 30
0.0
 11
5.5038617496
 21
5.58077684
 31
0.0
  0
ARC
  5
1FE
330
1F
100
AcDbEntity
  8
0
  6
Continuous
 62
     7
370
    30
100
AcDbCircle
 10
5.7718617512
 20
5.4629562212
 30
0.0
 40
0.268
100
AcDbArc
 50
180.0
 51
243.2145316219
  0
ARC
  5
1FF
330
1F
100
AcDbEntity
  8
0
  6
Continuous
 62
     7
370
    30
100
AcDbCircle
 10
5.6308079429
 20
5.1835410763
 30
0.0
 40
0.0450000000000003
100
AcDbArc
 50
351.9770130931
 51
63.2145316219
  0
ARC
  5
200
330
1F
100
AcDbEntity
  8
0
  6
Continuous
 62
     7
370
    30
100
AcDbCircle
 10
5.3218617512
 20
5.2270870357
 30
0.0
 40
0.3569999999999998
100
AcDbArc
 50
278.8498830984
 51
351.9770130931
  0
ARC
  5
201
330
1F
100
AcDbEntity
  8
0
  6
Continuous
 62
     7
370
    30
100
AcDbCircle
 10
5.3718617512
 20
4.9059562212
 30
0.0
 40
0.032
100
AcDbArc
 50
180.0
 51
278.8498830984
  0
LINE
  5
202
330
1F
100
AcDbEntity
  8
0
  6
Continuous
 62
     7
370
    30
100
AcDbLine
 10
5.339861752
 20
5.0359562138
 30
0.0
 11
5.339861752
 21
4.9059562139
 31
0.0
  0
LINE
  5
203
330
1F
100
AcDbEntity
  8
0
  6
Continuous
 62
     7
370
    30
100
AcDbLine
 10
5.339861752
 20
5.0359562138
 30
0.0
 11
5.3218617513
 21
5.0359562138
 31
0.0
  0
LINE
  5
204
330
1F
100
AcDbEntity
  8
0
  6
Continuous
 62
     7
370
    30
100
AcDbLine
 10
5.3218617513
 20
5.0359562138
 30
0.0
 11
5.3218617513
 21
4.9059562139
 31
0.0
  0
ARC
  5
205
330
1F
100
AcDbEntity
  8
0
  6
Continuous
 62
     7
370
    30
100
AcDbCircle
 10
5.3718617512
 20
4.9059562212
 30
0.0
 40
0.0499999999999998
100
AcDbArc
 50
180.0
 51
278.8498830984
  0
ARC
  5
206
330
1F
100
AcDbEntity
  8
0
  6
Continuous
 62
     7
370
    30
100
AcDbCircle
 10
5.3218617512
 20
5.2270870357
 30
0.0
 40
0.3750000000000001
100
AcDbArc
 50
278.8498830984
 51
351.9770130931
  0
ARC
  5
207
330
1F
100
AcDbEntity
  8
0
  6
Continuous
 62
     7
370
    30
100
AcDbCircle
 10
5.6308079429
 20
5.1835410763
 30
0.0
 40
0.0630000000000011
100
AcDbArc
 50
351.9770130931
 51
63.2145316219
  0
ARC
  5
208
330
1F
100
AcDbEntity
  8
0
  6
Continuous
 62
     7
370
    30
100
AcDbCircle
 10
5.7718617512
 20
5.4629562212
 30
0.0
 40
0.2499999999999993
100
AcDbArc
 50
180.0
 51
243.2145316219
  0
LINE
  5
209
330
1F
100
AcDbEntity
  8
0
  6
Continuous
 62
     7
370
    30
100
AcDbLine
 10
5.5218617583
 20
5.4629562477
 30
0.0
 11
5.5218617583
 21
5.58077684
 31
0.0
  0
ARC
  5
20A
330
1F
100
AcDbEntity
  8
0
  6
Continuous
 62
     7
370
    30
100
AcDbCircle
 10
5.4718617512
 20
5.5807768085
 30
0.0
 40
0.05
100
AcDbArc
 50
0.0
 51
60.1644397768
  0
ARC
  5
20B
330
1F
100
AcDbEntity
  8
0
  6
Continuous
 62
     7
370
    30
100
AcDbCircle
 10
5.5218617512
 20
5.6679562212
 30
0.0
 40
0.0505000000000007
100
AcDbArc
 50
70.0
 51
240.1644397768
  0
LINE
  5
20C
330
1F
100
AcDbEntity
  8
0
  6
Continuous
 62
     7
370
    30
100
AcDbLine
 10
5.5391337771
 20
5.7154106647
 30
0.0
 11
5.545290131
 21
5.7323251693
 31
0.0
  0
ARC
  5
20D
330
1F
100
AcDbEntity
  8
0
  6
Continuous
 62
     7
370
    30
100
AcDbCircle
 10
5.5218617512
 20
5.6679562212
 30
0.0
 40
0.0684999999999999
100
AcDbArc
 50
70.0
 51
240.1644397768
  0
LINE
  5
20E
330
1F
100
AcDbEntity
  8
0
  6
Continuous
 62
     7
370
    30
100
AcDbLine
 10
7.0391337407
 20
5.7154106647
 30
0.0
 11
7.0452901495
 21
5.7323251693
 31
0.0
  0
ARC
  5
20F
330
1F
100
AcDbEntity
  8
0
  6
Continuous
 62
     7
370
    30
100
AcDbCircle
 10
7.0218617512
 20
5.6679562212
 30
0.0
 40
0.0505000000000011
100
AcDbArc
 50
70.0
 51
240.1644397768
  0
ARC
  5
210
330
1F
100
AcDbEntity
  8
0
  6
Continuous
 62
     7
370
    30
100
AcDbCircle
 10
6.9718617512
 20
5.5807768085
 30
0.0
 40
0.0499999999999998
100
AcDbArc
 50
0.0
 51
60.1644397768
  0
LINE
  5
211
330
1F
100
AcDbEntity
  8
0
  6
Continuous
 62
     7
370
    30
100
AcDbLine
 10
7.0218617402
 20
5.4629562477
 30
0.0
 11
7.0218617402
 21
5.58077684
 31
0.0
  0
ARC
  5
212
330
1F
100
AcDbEntity
  8
0
  6
Continuous
 62
     7
370
    30
100
AcDbCircle
 10
7.2718617512
 20
5.4629562212
 30
0.0
 40
0.2499999999999993
100
AcDbArc
 50
180.0
 51
243.2145316219
  0
ARC
  5
213
330
1F
100
AcDbEntity
  8
0
  6
Continuous
 62
     7
370
    30
100
AcDbCircle
 10
7.1308079429
 20
5.1835410763
 30
0.0
 40
0.0629999999999999
100
AcDbArc
 50
351.9770130931
 51
63.2145316219
  0
ARC
  5
214
330
1F
100
AcDbEntity
  8
0
  6
Continuous
 62
     7
370
    30
100
AcDbCircle
 10
6.8218617512
 20
5.2270870357
 30
0.0
 40
0.3750000000000005
100
AcDbArc
 50
278.8498830984
 51
351.9770130931
  0
ARC
  5
215
330
1F
100
AcDbEntity
  8
0
  6
Continuous
 62
     7
370
    30
100
AcDbCircle
 10
6.8718617512
 20
4.9059562212
 30
0.0
 40
0.0499999999999998
100
AcDbArc
 50
180.0
 51
278.8498830984
  0
LINE
  5
216
330
1F
100
AcDbEntity
  8
0
  6
Continuous
 62
     7
370
    30
100
AcDbLine
 10
6.8218617573
 20
5.0359562138
 30
0.0
 11
6.8218617573
 21
4.9059562139
 31
0.0
  0
ARC
  5
217
330
1F
100
AcDbEntity
  8
0
  6
Continuous
 62
     7
370
    30
100
AcDbCircle
 10
7.0218617512
 20
5.6679562212
 30
0.0
 40
0.0685000000000004
100
AcDbArc
 50
70.0
 51
240.1644397768
  0
ARC
  5
218
330
1F
100
AcDbEntity
  8
0
  6
Continuous
 62
     7
370
    30
100
AcDbCircle
 10
6.9718617512
 20
5.5807768085
 30
0.0
 40
0.032
100
AcDbArc
 50
0.0
 51
60.1644397768
  0
LINE
  5
219
330
1F
100
AcDbEntity
  8
0
  6
Continuous
 62
     7
370
    30
100
AcDbLine
 10
7.0038616948
 20
5.4629562477
 30
0.0
 11
7.0038616948
 21
5.58077684
 31
0.0
  0
ARC
  5
21A
330
1F
100
AcDbEntity
  8
0
  6
Continuous
 62
     7
370
    30
100
AcDbCircle
 10
7.2718617512
 20
5.4629562212
 30
0.0
 40
0.2679999999999996
100
AcDbArc
 50
180.0
 51
243.2145316219
  0
ARC
  5
21B
330
1F
100
AcDbEntity
  8
0
  6
Continuous
 62
     7
370
    30
100
AcDbCircle
 10
7.1308079429
 20
5.1835410763
 30
0.0
 40
0.0449999999999995
100
AcDbArc
 50
351.9770130931
 51
63.2145316219
  0
ARC
  5
21C
330
1F
100
AcDbEntity
  8
0
  6
Continuous
 62
     7
370
    30
100
AcDbCircle
 10
6.8218617512
 20
5.2270870357
 30
0.0
 40
0.3570000000000008
100
AcDbArc
 50
278.8498830984
 51
351.9770130931
  0
ARC
  5
21D
330
1F
100
AcDbEntity
  8
0
  6
Continuous
 62
     7
370
    30
100
AcDbCircle
 10
6.8718617512
 20
4.9059562212
 30
0.0
 40
0.032
100
AcDbArc
 50
180.0
 51
278.8498830984
  0
LINE
  5
21E
330
1F
100
AcDbEntity
  8
0
  6
Continuous
 62
     7
370
    30
100
AcDbLine
 10
6.8398618027
 20
5.0359562138
 30
0.0
 11
6.8398618027
 21
4.9059562139
 31
0.0
  0
LINE
  5
21F
330
1F
100
AcDbEntity
  8
0
  6
Continuous
 62
     7
370
    30
100
AcDbLine
 10
6.8398618027
 20
5.0359562138
 30
0.0
 11
6.8218617573
 21
5.0359562138
 31
0.0
  0
ARC
  5
220
330
1F
100
AcDbEntity
  8
0
  6
Continuous
 62
     7
370
    30
100
AcDbCircle
 10
6.6558617512
 20
5.5807768085
 30
0.0
 40
0.0320000000000004
100
AcDbArc
 50
119.8355602232
 51
180.0
  0
LINE
  5
221
330
1F
100
AcDbEntity
  8
0
  6
Continuous
 62
     7
370
    30
100
AcDbLine
 10
6.6238616979
 20
5.4629562477
 30
0.0
 11
6.6238616979
 21
5.58077684
 31
0.0
  0
ARC
  5
222
330
1F
100
AcDbEntity
  8
0
  6
Continuous
 62
     7
370
    30
100
AcDbCircle
 10
6.3558617512
 20
5.4629562212
 30
0.0
 40
0.2679999999999998
100
AcDbArc
 50
296.7854683781
 51
0.0
  0
ARC
  5
223
330
1F
100
AcDbEntity
  8
0
  6
Continuous
 62
     7
370
    30
100
AcDbCircle
 10
6.4969155594
 20
5.1835410763
 30
0.0
 40
0.0450000000000003
100
AcDbArc
 50
116.7854683781
 51
188.0229869069
  0
ARC
  5
224
330
1F
100
AcDbEntity
  8
0
  6
Continuous
 62
     7
370
    30
100
AcDbCircle
 10
6.3558617512
 20
5.4629562212
 30
0.0
 40
0.25
100
AcDbArc
 50
296.7854683781
 51
0.0
  0
ARC
  5
225
330
1F
100
AcDbEntity
  8
0
  6
Continuous
 62
     7
370
    30
100
AcDbCircle
 10
6.8058617512
 20
5.2270870357
 30
0.0
 40
0.3570000000000006
100
AcDbArc
 50
188.0229869069
 51
261.1501169016
  0
ARC
  5
226
330
1F
100
AcDbEntity
  8
0
  6
Continuous
 62
     7
370
    30
100
AcDbCircle
 10
6.7558617512
 20
4.9059562212
 30
0.0
 40
0.0319999999999998
100
AcDbArc
 50
261.1501169016
 51
0.0
  0
LINE
  5
227
330
1F
100
AcDbEntity
  8
0
  6
Continuous
 62
     7
370
    30
100
AcDbLine
 10
6.7878617367
 20
5.0359562138
 30
0.0
 11
6.7878617367
 21
4.9059562139
 31
0.0
  0
LINE
  5
228
330
1F
100
AcDbEntity
  8
0
  6
Continuous
 62
     7
370
    30
100
AcDbLine
 10
6.7878617367
 20
5.0359562138
 30
0.0
 11
6.8058617821
 21
5.0359562138
 31
0.0
  0
LINE
  5
229
330
1F
100
AcDbEntity
  8
0
  6
Continuous
 62
     7
370
    30
100
AcDbLine
 10
6.8058617821
 20
5.0359562138
 30
0.0
 11
6.8058617821
 21
4.9059562139
 31
0.0
  0
ARC
  5
22A
330
1F
100
AcDbEntity
  8
0
  6
Continuous
 62
     7
370
    30
100
AcDbCircle
 10
6.7558617512
 20
4.9059562212
 30
0.0
 40
0.0499999999999998
100
AcDbArc
 50
261.1501169016
 51
0.0
  0
ARC
  5
22B
330
1F
100
AcDbEntity
  8
0
  6
Continuous
 62
     7
370
    30
100
AcDbCircle
 10
6.8058617512
 20
5.2270870357
 30
0.0
 40
0.375000000000001
100
AcDbArc
 50
188.0229869069
 51
261.1501169016
  0
ARC
  5
22C
330
1F
100
AcDbEntity
  8
0
  6
Continuous
 62
     7
370
    30
100
AcDbCircle
 10
6.4969155594
 20
5.1835410763
 30
0.0
 40
0.0629999999999997
100
AcDbArc
 50
116.7854683781
 51
188.0229869069
  0
LINE
  5
22D
330
1F
100
AcDbEntity
  8
0
  6
Continuous
 62
     7
370
    30
100
AcDbLine
 10
6.6058617992
 20
5.4629562477
 30
0.0
 11
6.6058617992
 21
5.58077684
 31
0.0
  0
ARC
  5
22E
330
1F
100
AcDbEntity
  8
0
  6
Continuous
 62
     7
370
    30
100
AcDbCircle
 10
6.6558617512
 20
5.5807768085
 30
0.0
 40
0.05
100
AcDbArc
 50
119.8355602232
 51
180.0
  0
ARC
  5
22F
330
1F
100
AcDbEntity
  8
0
  6
Continuous
 62
     7
370
    30
100
AcDbCircle
 10
6.6058617512
 20
5.6679562212
 30
0.0
 40
0.0505000000000004
100
AcDbArc
 50
299.8355602232
 51
110.0
  0
LINE
  5
230
330
1F
100
AcDbEntity
  8
0
  6
Continuous
 62
     7
370
    30
100
AcDbLine
 10
6.5885897987
 20
5.7154106647
 30
0.0
 11
6.5824333898
 21
5.7323251693
 31
0.0
  0
ARC
  5
231
330
1F
100
AcDbEntity
  8
0
  6
Continuous
 62
     7
370
    30
100
AcDbCircle
 10
6.6058617512
 20
5.6679562212
 30
0.0
 40
0.0685000000000004
100
AcDbArc
 50
299.8355602232
 51
110.0
  0
ARC
  5
232
330
1F
100
AcDbEntity
  8
0
  6
Continuous
 62
     7
370
    30
100
AcDbCircle
 10
3.6558617512
 20
5.5807768085
 30
0.0
 40
0.0319999999999996
100
AcDbArc
 50
119.8355602232
 51
180.0
  0
LINE
  5
233
330
1F
100
AcDbEntity
  8
0
  6
Continuous
 62
     7
370
    30
100
AcDbLine
 10
3.6238618075
 20
5.4629562477
 30
0.0
 11
3.6238618075
 21
5.58077684
 31
0.0
  0
ARC
  5
234
330
1F
100
AcDbEntity
  8
0
  6
Continuous
 62
     7
370
    30
100
AcDbCircle
 10
3.3558617512
 20
5.4629562212
 30
0.0
 40
0.2680000000000002
100
AcDbArc
 50
296.7854683781
 51
0.0
  0
ARC
  5
235
330
1F
100
AcDbEntity
  8
0
  6
Continuous
 62
     7
370
    30
100
AcDbCircle
 10
3.4969155594
 20
5.1835410763
 30
0.0
 40
0.0450000000000007
100
AcDbArc
 50
116.7854683781
 51
188.0229869069
  0
ARC
  5
236
330
1F
100
AcDbEntity
  8
0
  6
Continuous
 62
     7
370
    30
100
AcDbCircle
 10
3.8058617512
 20
5.2270870357
 30
0.0
 40
0.3570000000000008
100
AcDbArc
 50
188.0229869069
 51
261.1501169016
  0
ARC
  5
237
330
1F
100
AcDbEntity
  8
0
  6
Continuous
 62
     7
370
    30
100
AcDbCircle
 10
3.7558617512
 20
4.9059562212
 30
0.0
 40
0.0320000000000005
100
AcDbArc
 50
261.1501169016
 51
0.0
  0
LINE
  5
238
330
1F
100
AcDbEntity
  8
0
  6
Continuous
 62
     7
370
    30
100
AcDbLine
 10
3.7878616996
 20
5.0359562138
 30
0.0
 11
3.7878616996
 21
4.9059562139
 31
0.0
  0
LINE
  5
239
330
1F
100
AcDbEntity
  8
0
  6
Continuous
 62
     7
370
    30
100
AcDbLine
 10
3.7878616996
 20
5.0359562138
 30
0.0
 11
3.805861745
 21
5.0359562138
 31
0.0
  0
LINE
  5
23A
330
1F
100
AcDbEntity
  8
0
  6
Continuous
 62
     7
370
    30
100
AcDbLine
 10
3.805861745
 20
5.0359562138
 30
0.0
 11
3.805861745
 21
4.9059562139
 31
0.0
  0
ARC
  5
23B
330
1F
100
AcDbEntity
  8
0
  6
Continuous
 62
     7
370
    30
100
AcDbCircle
 10
3.7558617512
 20
4.9059562212
 30
0.0
 40
0.0500000000000003
100
AcDbArc
 50
261.1501169016
 51
0.0
  0
ARC
  5
23C
330
1F
100
AcDbEntity
  8
0
  6
Continuous
 62
     7
370
    30
100
AcDbCircle
 10
3.8058617512
 20
5.2270870357
 30
0.0
 40
0.3750000000000006
100
AcDbArc
 50
188.0229869069
 51
261.1501169016
  0
ARC
  5
23D
330
1F
100
AcDbEntity
  8
0
  6
Continuous
 62
     7
370
    30
100
AcDbCircle
 10
3.4969155594
 20
5.1835410763
 30
0.0
 40
0.0630000000000005
100
AcDbArc
 50
116.7854683781
 51
188.0229869069
  0
ARC
  5
23E
330
1F
100
AcDbEntity
  8
0
  6
Continuous
 62
     7
370
    30
100
AcDbCircle
 10
3.3558617512
 20
5.4629562212
 30
0.0
 40
0.2500000000000002
100
AcDbArc
 50
296.7854683781
 51
0.0
  0
LINE
  5
23F
330
1F
100
AcDbEntity
  8
0
  6
Continuous
 62
     7
370
    30
100
AcDbLine
 10
3.6058617621
 20
5.4629562477
 30
0.0
 11
3.6058617621
 21
5.58077684
 31
0.0
  0
ARC
  5
240
330
1F
100
AcDbEntity
  8
0
  6
Continuous
 62
     7
370
    30
100
AcDbCircle
 10
3.6558617512
 20
5.5807768085
 30
0.0
 40
0.0500000000000003
100
AcDbArc
 50
119.8355602232
 51
180.0
  0
ARC
  5
241
330
1F
100
AcDbEntity
  8
0
  6
Continuous
 62
     7
370
    30
100
AcDbCircle
 10
3.6058617512
 20
5.6679562212
 30
0.0
 40
0.0504999999999999
100
AcDbArc
 50
299.8355602232
 51
110.0
  0
LINE
  5
242
330
1F
100
AcDbEntity
  8
0
  6
Continuous
 62
     7
370
    30
100
AcDbLine
 10
3.5885897616
 20
5.7154106647
 30
0.0
 11
3.5824333528
 21
5.7323251693
 31
0.0
  0
ARC
  5
243
330
1F
100
AcDbEntity
  8
0
  6
Continuous
 62
     7
370
    30
100
AcDbCircle
 10
3.6058617512
 20
5.6679562212
 30
0.0
 40
0.0685000000000007
100
AcDbArc
 50
299.8355602232
 51
110.0
  0
LINE
  5
244
330
1F
100
AcDbEntity
  8
0
  6
Continuous
 62
     7
370
    30
100
AcDbLine
 10
5.4863617584
 20
5.4309562241
 30
0.0
 11
5.1413617439
 21
5.4309562241
 31
0.0
  0
LINE
  5
245
330
1F
100
AcDbEntity
  8
0
  6
Continuous
 62
     7
370
    30
100
AcDbLine
 10
5.2229810118
 20
5.805956192
 30
0.0
 11
5.1258617496
 21
5.805956192
 31
0.0
  0
LINE
  5
246
330
1F
100
AcDbEntity
  8
0
  6
Continuous
 62
     7
370
    30
100
AcDbLine
 10
5.2199006808
 20
5.7725112251
 30
0.0
 11
5.2199006808
 21
5.7783677041
 31
0.0
  0
LINE
  5
247
330
1F
100
AcDbEntity
  8
0
  6
Continuous
 62
     7
370
    30
100
AcDbLine
 10
5.4077919302
 20
5.5770041036
 30
0.0
 11
5.3874307575
 21
5.5652486127
 31
0.0
  0
LINE
  5
248
330
1F
100
AcDbEntity
  8
0
  6
Continuous
 62
     7
370
    30
100
AcDbLine
 10
5.4077919302
 20
5.618084009
 30
0.0
 11
5.4077919302
 21
5.61222753
 31
0.0
  0
LINE
  5
249
330
1F
100
AcDbEntity
  8
0
  6
Continuous
 62
     7
370
    30
100
AcDbLine
 10
5.4077919302
 20
5.6533074354
 30
0.0
 11
5.4077919302
 21
5.6474509564
 31
0.0
  0
LINE
  5
24A
330
1F
100
AcDbEntity
  8
0
  6
Continuous
 62
     7
370
    30
100
AcDbLine
 10
5.4077919302
 20
5.6885308619
 30
0.0
 11
5.4077919302
 21
5.6826743829
 31
0.0
  0
LINE
  5
24B
330
1F
100
AcDbEntity
  8
0
  6
Continuous
 62
     7
370
    30
100
AcDbLine
 10
5.3874315688
 20
5.7061427584
 30
0.0
 11
5.3874315688
 21
5.7002859861
 31
0.0
  0
LINE
  5
24C
330
1F
100
AcDbEntity
  8
0
  6
Continuous
 62
     7
370
    30
100
AcDbLine
 10
5.4077919302
 20
5.7237542883
 30
0.0
 11
5.4077919302
 21
5.7178978093
 31
0.0
  0
LINE
  5
24D
330
1F
100
AcDbEntity
  8
0
  6
Continuous
 62
     7
370
    30
100
AcDbLine
 10
5.3874315688
 20
5.7413661848
 30
0.0
 11
5.3874315688
 21
5.7355093392
 31
0.0
  0
LINE
  5
24E
330
1F
100
AcDbEntity
  8
0
  6
Continuous
 62
     7
370
    30
100
AcDbLine
 10
5.3874315688
 20
5.7765896113
 30
0.0
 11
5.3874315688
 21
5.7707327656
 31
0.0
  0
LINE
  5
24F
330
1F
100
AcDbEntity
  8
0
  6
Continuous
 62
     7
370
    30
100
AcDbLine
 10
5.4077919302
 20
5.7942011412
 30
0.0
 11
5.4077919302
 21
5.7883446621
 31
0.0
  0
ARC
  5
250
330
1F
100
AcDbEntity
  8
0
  6
Continuous
 62
     7
370
    30
100
AcDbCircle
 10
5.5538617512
 20
5.7423672419
 30
0.0
 40
0.0099999999999893
100
AcDbArc
 50
246.7301760415
 51
360.0
  0
ARC
  5
251
330
1F
100
AcDbEntity
  8
0
  6
Continuous
 62
     7
370
    30
100
AcDbCircle
 10
5.5218617512
 20
5.6679562212
 30
0.0
 40
0.0710000000000111
100
AcDbArc
 50
66.7301760415
 51
232.4184423812
  0
ARC
  5
252
330
1F
100
AcDbEntity
  8
0
  6
Continuous
 62
     7
370
    30
100
AcDbCircle
 10
5.4663617512
 20
5.5958399956
 30
0.0
 40
0.0199999999999987
100
AcDbArc
 50
0.0
 51
52.4184423813
  0
LINE
  5
253
330
1F
100
AcDbEntity
  8
0
  6
Continuous
 62
     7
370
    30
100
AcDbLine
 10
5.4863617584
 20
5.4309562241
 30
0.0
 11
5.4863617584
 21
5.5958399926
 31
0.0
  0
LINE
  5
254
330
1F
100
AcDbEntity
  8
0
  6
Continuous
 62
     7
370
    30
100
AcDbLine
 10
5.1413617439
 20
5.5958399926
 30
0.0
 11
5.1413617439
 21
5.4309562241
 31
0.0
  0
ARC
  5
255
330
1F
100
AcDbEntity
  8
0
  6
Continuous
 62
     7
370
    30
100
AcDbCircle
 10
5.1613617512
 20
5.5958399956
 30
0.0
 40
0.0199999999999997
100
AcDbArc
 50
127.5815576188
 51
180.0
  0
ARC
  5
256
330
1F
100
AcDbEntity
  8
0
  6
Continuous
 62
     7
370
    30
100
AcDbCircle
 10
5.1058617512
 20
5.6679562212
 30
0.0
 40
0.0710000000000084
100
AcDbArc
 50
307.5815576188
 51
113.2698239585
  0
ARC
  5
257
330
1F
100
AcDbEntity
  8
0
  6
Continuous
 62
     7
370
    30
100
AcDbCircle
 10
5.0738617512
 20
5.7423672419
 30
0.0
 40
0.0099999999999927
100
AcDbArc
 50
180.0
 51
293.2698239585
  0
LINE
  5
258
330
1F
100
AcDbEntity
  8
0
  6
Continuous
 62
     7
370
    30
100
AcDbLine
 10
5.0638617542
 20
5.7439562149
 30
0.0
 11
5.0638617542
 21
5.7423672466
 31
0.0
  0
LINE
  5
259
330
1F
100
AcDbEntity
  8
0
  6
Continuous
 62
     7
370
    30
100
AcDbLine
 10
5.2402610422
 20
5.7901227549
 30
0.0
 11
5.2402610422
 21
5.7959796006
 31
0.0
  0
ARC
  5
25A
330
1F
100
AcDbEntity
  8
0
  6
Continuous
 62
     7
370
    30
100
AcDbCircle
 10
5.2318617512
 20
5.5219562212
 30
0.0
 40
0.0310000000000009
100
AcDbArc
 50
104.7376174516
 51
270.0
  0
LINE
  5
25B
330
1F
100
AcDbEntity
  8
0
  6
Continuous
 62
     7
370
    30
100
AcDbLine
 10
5.2402610422
 20
5.7548993285
 30
0.0
 11
5.2402610422
 21
5.7607561742
 31
0.0
  0
LINE
  5
25C
330
1F
100
AcDbEntity
  8
0
  6
Continuous
 62
     7
370
    30
100
AcDbLine
 10
5.2199006808
 20
5.7372877986
 30
0.0
 11
5.2199006808
 21
5.7431442776
 31
0.0
  0
LINE
  5
25D
330
1F
100
AcDbEntity
  8
0
  6
Continuous
 62
     7
370
    30
100
AcDbLine
 10
5.2402610422
 20
5.7196759021
 30
0.0
 11
5.2402610422
 21
5.7255327478
 31
0.0
  0
LINE
  5
25E
330
1F
100
AcDbEntity
  8
0
  6
Continuous
 62
     7
370
    30
100
AcDbLine
 10
5.2199006808
 20
5.7020643722
 30
0.0
 11
5.2199006808
 21
5.7079208512
 31
0.0
  0
LINE
  5
25F
330
1F
100
AcDbEntity
  8
0
  6
Continuous
 62
     7
370
    30
100
AcDbLine
 10
5.2402610422
 20
5.6844524757
 30
0.0
 11
5.2402610422
 21
5.6903093213
 31
0.0
  0
LINE
  5
260
330
1F
100
AcDbEntity
  8
0
  6
Continuous
 62
     7
370
    30
100
AcDbLine
 10
5.2199006808
 20
5.6668409458
 30
0.0
 11
5.2199006808
 21
5.6726974248
 31
0.0
  0
LINE
  5
261
330
1F
100
AcDbEntity
  8
0
  6
Continuous
 62
     7
370
    30
100
AcDbLine
 10
5.2402610422
 20
5.6492290492
 30
0.0
 11
5.2402610422
 21
5.6550858949
 31
0.0
  0
LINE
  5
262
330
1F
100
AcDbEntity
  8
0
  6
Continuous
 62
     7
370
    30
100
AcDbLine
 10
5.2199006808
 20
5.6316175193
 30
0.0
 11
5.2199006808
 21
5.6374739984
 31
0.0
  0
LINE
  5
263
330
1F
100
AcDbEntity
  8
0
  6
Continuous
 62
     7
370
    30
100
AcDbLine
 10
5.2402610422
 20
5.6140056228
 30
0.0
 11
5.2402610422
 21
5.6198624685
 31
0.0
  0
LINE
  5
264
330
1F
100
AcDbEntity
  8
0
  6
Continuous
 62
     7
370
    30
100
AcDbLine
 10
5.2199006808
 20
5.5963940929
 30
0.0
 11
5.2199006808
 21
5.6022505719
 31
0.0
  0
LINE
  5
265
330
1F
100
AcDbEntity
  8
0
  6
Continuous
 62
     7
370
    30
100
AcDbLine
 10
5.2402610422
 20
5.5787822697
 30
0.0
 11
5.2402610422
 21
5.584639042
 31
0.0
  0
LINE
  5
266
330
1F
100
AcDbEntity
  8
0
  6
Continuous
 62
     7
370
    30
100
AcDbLine
 10
5.2199006808
 20
5.5611706665
 30
0.0
 11
5.2199006808
 21
5.5670271455
 31
0.0
  0
LINE
  5
267
330
1F
100
AcDbEntity
  8
0
  6
Continuous
 62
     7
370
    30
100
AcDbLine
 10
5.3874307575
 20
5.5593834805
 30
0.0
 11
5.3988057857
 21
5.5528161163
 31
0.0
  0
LINE
  5
268
330
1F
100
AcDbEntity
  8
0
  6
Continuous
 62
     7
370
    30
100
AcDbLine
 10
5.3874315688
 20
5.5946157068
 30
0.0
 11
5.4077919302
 21
5.5828606559
 31
0.0
  0
LINE
  5
269
330
1F
100
AcDbEntity
  8
0
  6
Continuous
 62
     7
370
    30
100
AcDbLine
 10
5.4077919302
 20
5.61222753
 30
0.0
 11
5.3874315688
 21
5.6004724791
 31
0.0
  0
LINE
  5
26A
330
1F
100
AcDbEntity
  8
0
  6
Continuous
 62
     7
370
    30
100
AcDbLine
 10
5.3874315688
 20
5.6298391332
 30
0.0
 11
5.4077919302
 21
5.618084009
 31
0.0
  0
LINE
  5
26B
330
1F
100
AcDbEntity
  8
0
  6
Continuous
 62
     7
370
    30
100
AcDbLine
 10
5.4077919302
 20
5.6474509564
 30
0.0
 11
5.3874315688
 21
5.6356959056
 31
0.0
  0
LINE
  5
26C
330
1F
100
AcDbEntity
  8
0
  6
Continuous
 62
     7
370
    30
100
AcDbLine
 10
5.3874315688
 20
5.6650625596
 30
0.0
 11
5.4077919302
 21
5.6533074354
 31
0.0
  0
LINE
  5
26D
330
1F
100
AcDbEntity
  8
0
  6
Continuous
 62
     7
370
    30
100
AcDbLine
 10
5.3874315688
 20
5.670919332
 30
0.0
 11
5.3874315688
 21
5.6650625596
 31
0.0
  0
LINE
  5
26E
330
1F
100
AcDbEntity
  8
0
  6
Continuous
 62
     7
370
    30
100
AcDbLine
 10
5.4077919302
 20
5.6826743829
 30
0.0
 11
5.3874315688
 21
5.670919332
 31
0.0
  0
LINE
  5
26F
330
1F
100
AcDbEntity
  8
0
  6
Continuous
 62
     7
370
    30
100
AcDbLine
 10
5.3874315688
 20
5.7002859861
 30
0.0
 11
5.4077919302
 21
5.6885308619
 31
0.0
  0
LINE
  5
270
330
1F
100
AcDbEntity
  8
0
  6
Continuous
 62
     7
370
    30
100
AcDbLine
 10
5.2199006808
 20
5.7783677041
 30
0.0
 11
5.2402610422
 21
5.7901227549
 31
0.0
  0
LINE
  5
271
330
1F
100
AcDbEntity
  8
0
  6
Continuous
 62
     7
370
    30
100
AcDbLine
 10
5.5638617481
 20
5.7423672466
 30
0.0
 11
5.5638617481
 21
5.7439562149
 31
0.0
  0
ARC
  5
272
330
1F
100
AcDbEntity
  8
0
  6
Continuous
 62
     7
370
    30
100
AcDbCircle
 10
5.1258617512
 20
5.7439562212
 30
0.0
 40
0.0620000000000029
100
AcDbArc
 50
90.0
 51
180.0
  0
LINE
  5
273
330
1F
100
AcDbEntity
  8
0
  6
Continuous
 62
     7
370
    30
100
AcDbLine
 10
5.3874307575
 20
5.5652486127
 30
0.0
 11
5.3874307575
 21
5.5593834805
 31
0.0
  0
LINE
  5
274
330
1F
100
AcDbEntity
  8
0
  6
Continuous
 62
     7
370
    30
100
AcDbLine
 10
5.4077919302
 20
5.5828606559
 30
0.0
 11
5.4077919302
 21
5.5770041036
 31
0.0
  0
LINE
  5
275
330
1F
100
AcDbEntity
  8
0
  6
Continuous
 62
     7
370
    30
100
AcDbLine
 10
5.3874315688
 20
5.6004724791
 30
0.0
 11
5.3874315688
 21
5.5946157068
 31
0.0
  0
LINE
  5
276
330
1F
100
AcDbEntity
  8
0
  6
Continuous
 62
     7
370
    30
100
AcDbLine
 10
5.3874315688
 20
5.6356959056
 30
0.0
 11
5.3874315688
 21
5.6298391332
 31
0.0
  0
LINE
  5
277
330
1F
100
AcDbEntity
  8
0
  6
Continuous
 62
     7
370
    30
100
AcDbLine
 10
5.4077919302
 20
5.7178978093
 30
0.0
 11
5.3874315688
 21
5.7061427584
 31
0.0
  0
LINE
  5
278
330
1F
100
AcDbEntity
  8
0
  6
Continuous
 62
     7
370
    30
100
AcDbLine
 10
5.3874315688
 20
5.7355093392
 30
0.0
 11
5.4077919302
 21
5.7237542883
 31
0.0
  0
LINE
  5
279
330
1F
100
AcDbEntity
  8
0
  6
Continuous
 62
     7
370
    30
100
AcDbLine
 10
5.4077919302
 20
5.7531212357
 30
0.0
 11
5.3874315688
 21
5.7413661848
 31
0.0
  0
LINE
  5
27A
330
1F
100
AcDbEntity
  8
0
  6
Continuous
 62
     7
370
    30
100
AcDbLine
 10
5.3874315688
 20
5.7707327656
 30
0.0
 11
5.4077919302
 21
5.7589777147
 31
0.0
  0
LINE
  5
27B
330
1F
100
AcDbEntity
  8
0
  6
Continuous
 62
     7
370
    30
100
AcDbLine
 10
5.4077919302
 20
5.7883446621
 30
0.0
 11
5.3874315688
 21
5.7765896113
 31
0.0
  0
LINE
  5
27C
330
1F
100
AcDbEntity
  8
0
  6
Continuous
 62
     7
370
    30
100
AcDbLine
 10
5.3874315688
 20
5.805956192
 30
0.0
 11
5.4077919302
 21
5.7942011412
 31
0.0
  0
ARC
  5
27D
330
1F
100
AcDbEntity
  8
0
  6
Continuous
 62
     7
370
    30
100
AcDbCircle
 10
5.5018617512
 20
5.7439562212
 30
0.0
 40
0.0620000000000065
100
AcDbArc
 50
0.0
 51
90.0
  0
LINE
  5
27E
330
1F
100
AcDbEntity
  8
0
  6
Continuous
 62
     7
370
    30
100
AcDbLine
 10
5.2402610422
 20
5.7959796006
 30
0.0
 11
5.2229810118
 21
5.805956192
 31
0.0
  0
LINE
  5
27F
330
1F
100
AcDbEntity
  8
0
  6
Continuous
 62
     7
370
    30
100
AcDbLine
 10
5.2402610422
 20
5.7607561742
 30
0.0
 11
5.2199006808
 21
5.7725112251
 31
0.0
  0
LINE
  5
280
330
1F
100
AcDbEntity
  8
0
  6
Continuous
 62
     7
370
    30
100
AcDbLine
 10
5.2199006808
 20
5.7431442776
 30
0.0
 11
5.2402610422
 21
5.7548993285
 31
0.0
  0
LINE
  5
281
330
1F
100
AcDbEntity
  8
0
  6
Continuous
 62
     7
370
    30
100
AcDbLine
 10
5.2402610422
 20
5.7255327478
 30
0.0
 11
5.2199006808
 21
5.7372877986
 31
0.0
  0
LINE
  5
282
330
1F
100
AcDbEntity
  8
0
  6
Continuous
 62
     7
370
    30
100
AcDbLine
 10
5.2199006808
 20
5.7079208512
 30
0.0
 11
5.2402610422
 21
5.7196759021
 31
0.0
  0
LINE
  5
283
330
1F
100
AcDbEntity
  8
0
  6
Continuous
 62
     7
370
    30
100
AcDbLine
 10
5.2402610422
 20
5.6903093213
 30
0.0
 11
5.2199006808
 21
5.7020643722
 31
0.0
  0
LINE
  5
284
330
1F
100
AcDbEntity
  8
0
  6
Continuous
 62
     7
370
    30
100
AcDbLine
 10
5.2199006808
 20
5.6726974248
 30
0.0
 11
5.2402610422
 21
5.6844524757
 31
0.0
  0
LINE
  5
285
330
1F
100
AcDbEntity
  8
0
  6
Continuous
 62
     7
370
    30
100
AcDbLine
 10
5.2402610422
 20
5.6550858949
 30
0.0
 11
5.2199006808
 21
5.6668409458
 31
0.0
  0
LINE
  5
286
330
1F
100
AcDbEntity
  8
0
  6
Continuous
 62
     7
370
    30
100
AcDbLine
 10
5.2199006808
 20
5.6374739984
 30
0.0
 11
5.2402610422
 21
5.6492290492
 31
0.0
  0
LINE
  5
287
330
1F
100
AcDbEntity
  8
0
  6
Continuous
 62
     7
370
    30
100
AcDbLine
 10
5.2402610422
 20
5.6198624685
 30
0.0
 11
5.2199006808
 21
5.6316175193
 31
0.0
  0
LINE
  5
288
330
1F
100
AcDbEntity
  8
0
  6
Continuous
 62
     7
370
    30
100
AcDbLine
 10
5.2199006808
 20
5.6022505719
 30
0.0
 11
5.2402610422
 21
5.6140056228
 31
0.0
  0
LINE
  5
289
330
1F
100
AcDbEntity
  8
0
  6
Continuous
 62
     7
370
    30
100
AcDbLine
 10
5.2402610422
 20
5.584639042
 30
0.0
 11
5.2199006808
 21
5.5963940929
 31
0.0
  0
LINE
  5
28A
330
1F
100
AcDbEntity
  8
0
  6
Continuous
 62
     7
370
    30
100
AcDbLine
 10
5.2199006808
 20
5.5670271455
 30
0.0
 11
5.2402610422
 21
5.5787822697
 31
0.0
  0
LINE
  5
28B
330
1F
100
AcDbEntity
  8
0
  6
Continuous
 62
     7
370
    30
100
AcDbLine
 10
5.2245019276
 20
5.5585141238
 30
0.0
 11
5.2199006808
 21
5.5611706665
 31
0.0
  0
ARC
  5
28C
330
1F
100
AcDbEntity
  8
0
  6
Continuous
 62
     7
370
    30
100
AcDbCircle
 10
5.2148288162
 20
5.5559782434
 30
0.0
 40
0.0100000000000086
100
AcDbArc
 50
336.1596651702
 51
14.6901250941
  0
LINE
  5
28D
330
1F
100
AcDbEntity
  8
0
  6
Continuous
 62
     7
370
    30
100
AcDbLine
 10
5.3958617522
 20
5.4909562043
 30
0.0
 11
5.2318617501
 21
5.4909562043
 31
0.0
  0
LINE
  5
28E
330
1F
100
AcDbEntity
  8
0
  6
Continuous
 62
     7
370
    30
100
AcDbLine
 10
5.4077919302
 20
5.7589777147
 30
0.0
 11
5.4077919302
 21
5.7531212357
 31
0.0
  0
ARC
  5
28F
330
1F
100
AcDbEntity
  8
0
  6
Continuous
 62
     7
370
    30
100
AcDbCircle
 10
5.3958617512
 20
5.5219562212
 30
0.0
 40
0.0310000000000005
100
AcDbArc
 50
270.0
 51
84.5504773049
  0
LINE
  5
290
330
1F
100
AcDbEntity
  8
0
  6
Continuous
 62
     7
370
    30
100
AcDbLine
 10
5.5018617527
 20
5.805956192
 30
0.0
 11
5.3874315688
 21
5.805956192
 31
0.0
  0
LINE
  5
291
330
1F
100
AcDbEntity
  8
0
  6
Continuous
 62
     7
370
    30
100
AcDbLine
 10
6.986361777
 20
5.4309562241
 30
0.0
 11
6.6413617624
 21
5.4309562241
 31
0.0
  0
LINE
  5
292
330
1F
100
AcDbEntity
  8
0
  6
Continuous
 62
     7
370
    30
100
AcDbLine
 10
6.7229809662
 20
5.805956192
 30
0.0
 11
6.6258617681
 21
5.805956192
 31
0.0
  0
LINE
  5
293
330
1F
100
AcDbEntity
  8
0
  6
Continuous
 62
     7
370
    30
100
AcDbLine
 10
6.7402610333
 20
5.7959796006
 30
0.0
 11
6.7229809662
 21
5.805956192
 31
0.0
  0
LINE
  5
294
330
1F
100
AcDbEntity
  8
0
  6
Continuous
 62
     7
370
    30
100
AcDbLine
 10
6.7402610333
 20
5.7607561742
 30
0.0
 11
6.7199007085
 21
5.7725112251
 31
0.0
  0
LINE
  5
295
330
1F
100
AcDbEntity
  8
0
  6
Continuous
 62
     7
370
    30
100
AcDbLine
 10
6.7199007085
 20
5.7431442776
 30
0.0
 11
6.7402610333
 21
5.7548993285
 31
0.0
  0
LINE
  5
296
330
1F
100
AcDbEntity
  8
0
  6
Continuous
 62
     7
370
    30
100
AcDbLine
 10
6.7402610333
 20
5.7255327478
 30
0.0
 11
6.7199007085
 21
5.7372877986
 31
0.0
  0
LINE
  5
297
330
1F
100
AcDbEntity
  8
0
  6
Continuous
 62
     7
370
    30
100
AcDbLine
 10
6.7199007085
 20
5.7079208512
 30
0.0
 11
6.7402610333
 21
5.7196759021
 31
0.0
  0
LINE
  5
298
330
1F
100
AcDbEntity
  8
0
  6
Continuous
 62
     7
370
    30
100
AcDbLine
 10
6.7402610333
 20
5.6903093213
 30
0.0
 11
6.7199007085
 21
5.7020643722
 31
0.0
  0
LINE
  5
299
330
1F
100
AcDbEntity
  8
0
  6
Continuous
 62
     7
370
    30
100
AcDbLine
 10
6.7199007085
 20
5.6726974248
 30
0.0
 11
6.7402610333
 21
5.6844524757
 31
0.0
  0
LINE
  5
29A
330
1F
100
AcDbEntity
  8
0
  6
Continuous
 62
     7
370
    30
100
AcDbLine
 10
6.7402610333
 20
5.6550858949
 30
0.0
 11
6.7199007085
 21
5.6668409458
 31
0.0
  0
LINE
  5
29B
330
1F
100
AcDbEntity
  8
0
  6
Continuous
 62
     7
370
    30
100
AcDbLine
 10
6.7199007085
 20
5.6374739984
 30
0.0
 11
6.7402610333
 21
5.6492290492
 31
0.0
  0
LINE
  5
29C
330
1F
100
AcDbEntity
  8
0
  6
Continuous
 62
     7
370
    30
100
AcDbLine
 10
6.7402610333
 20
5.6198624685
 30
0.0
 11
6.7199007085
 21
5.6316175193
 31
0.0
  0
LINE
  5
29D
330
1F
100
AcDbEntity
  8
0
  6
Continuous
 62
     7
370
    30
100
AcDbLine
 10
6.7199007085
 20
5.6022505719
 30
0.0
 11
6.7402610333
 21
5.6140056228
 31
0.0
  0
LINE
  5
29E
330
1F
100
AcDbEntity
  8
0
  6
Continuous
 62
     7
370
    30
100
AcDbLine
 10
6.7402610333
 20
5.584639042
 30
0.0
 11
6.7199007085
 21
5.5963940929
 31
0.0
  0
LINE
  5
29F
330
1F
100
AcDbEntity
  8
0
  6
Continuous
 62
     7
370
    30
100
AcDbLine
 10
6.7199007085
 20
5.5670271455
 30
0.0
 11
6.7402610333
 21
5.5787822697
 31
0.0
  0
LINE
  5
2A0
330
1F
100
AcDbEntity
  8
0
  6
Continuous
 62
     7
370
    30
100
AcDbLine
 10
6.7199007085
 20
5.5611706665
 30
0.0
 11
6.7199007085
 21
5.5670271455
 31
0.0
  0
LINE
  5
2A1
330
1F
100
AcDbEntity
  8
0
  6
Continuous
 62
     7
370
    30
100
AcDbLine
 10
6.724501882
 20
5.5585141238
 30
0.0
 11
6.7199007085
 21
5.5611706665
 31
0.0
  0
ARC
  5
2A2
330
1F
100
AcDbEntity
  8
0
  6
Continuous
 62
     7
370
    30
100
AcDbCircle
 10
6.7148288162
 20
5.5559782434
 30
0.0
 40
0.0100000000000097
100
AcDbArc
 50
336.1596651702
 51
14.6901250941
  0
ARC
  5
2A3
330
1F
100
AcDbEntity
  8
0
  6
Continuous
 62
     7
370
    30
100
AcDbCircle
 10
6.7318617512
 20
5.5219562212
 30
0.0
 40
0.0310000000000007
100
AcDbArc
 50
104.7376174516
 51
270.0
  0
LINE
  5
2A4
330
1F
100
AcDbEntity
  8
0
  6
Continuous
 62
     7
370
    30
100
AcDbLine
 10
6.8958617158
 20
5.4909562043
 30
0.0
 11
6.7318618236
 21
5.4909562043
 31
0.0
  0
ARC
  5
2A5
330
1F
100
AcDbEntity
  8
0
  6
Continuous
 62
     7
370
    30
100
AcDbCircle
 10
6.8958617512
 20
5.5219562212
 30
0.0
 40
0.0310000000000006
100
AcDbArc
 50
270.0
 51
84.5504773049
  0
LINE
  5
2A6
330
1F
100
AcDbEntity
  8
0
  6
Continuous
 62
     7
370
    30
100
AcDbLine
 10
6.8874308265
 20
5.5593834805
 30
0.0
 11
6.8988057217
 21
5.5528161163
 31
0.0
  0
LINE
  5
2A7
330
1F
100
AcDbEntity
  8
0
  6
Continuous
 62
     7
370
    30
100
AcDbLine
 10
6.8874308265
 20
5.5652486127
 30
0.0
 11
6.8874308265
 21
5.5593834805
 31
0.0
  0
LINE
  5
2A8
330
1F
100
AcDbEntity
  8
0
  6
Continuous
 62
     7
370
    30
100
AcDbLine
 10
6.9077918846
 20
5.5770041036
 30
0.0
 11
6.8874308265
 21
5.5652486127
 31
0.0
  0
LINE
  5
2A9
330
1F
100
AcDbEntity
  8
0
  6
Continuous
 62
     7
370
    30
100
AcDbLine
 10
6.9077918846
 20
5.5828606559
 30
0.0
 11
6.9077918846
 21
5.5770041036
 31
0.0
  0
LINE
  5
2AA
330
1F
100
AcDbEntity
  8
0
  6
Continuous
 62
     7
370
    30
100
AcDbLine
 10
6.8874315598
 20
5.5946157068
 30
0.0
 11
6.9077918846
 21
5.5828606559
 31
0.0
  0
LINE
  5
2AB
330
1F
100
AcDbEntity
  8
0
  6
Continuous
 62
     7
370
    30
100
AcDbLine
 10
6.8874315598
 20
5.6004724791
 30
0.0
 11
6.8874315598
 21
5.5946157068
 31
0.0
  0
LINE
  5
2AC
330
1F
100
AcDbEntity
  8
0
  6
Continuous
 62
     7
370
    30
100
AcDbLine
 10
6.9077918846
 20
5.61222753
 30
0.0
 11
6.8874315598
 21
5.6004724791
 31
0.0
  0
LINE
  5
2AD
330
1F
100
AcDbEntity
  8
0
  6
Continuous
 62
     7
370
    30
100
AcDbLine
 10
6.9077918846
 20
5.618084009
 30
0.0
 11
6.9077918846
 21
5.61222753
 31
0.0
  0
LINE
  5
2AE
330
1F
100
AcDbEntity
  8
0
  6
Continuous
 62
     7
370
    30
100
AcDbLine
 10
6.8874315598
 20
5.6298391332
 30
0.0
 11
6.9077918846
 21
5.618084009
 31
0.0
  0
LINE
  5
2AF
330
1F
100
AcDbEntity
  8
0
  6
Continuous
 62
     7
370
    30
100
AcDbLine
 10
6.8874315598
 20
5.6356959056
 30
0.0
 11
6.8874315598
 21
5.6298391332
 31
0.0
  0
LINE
  5
2B0
330
1F
100
AcDbEntity
  8
0
  6
Continuous
 62
     7
370
    30
100
AcDbLine
 10
6.9077918846
 20
5.6474509564
 30
0.0
 11
6.8874315598
 21
5.6356959056
 31
0.0
  0
LINE
  5
2B1
330
1F
100
AcDbEntity
  8
0
  6
Continuous
 62
     7
370
    30
100
AcDbLine
 10
6.8874315598
 20
5.6650625596
 30
0.0
 11
6.9077918846
 21
5.6533074354
 31
0.0
  0
LINE
  5
2B2
330
1F
100
AcDbEntity
  8
0
  6
Continuous
 62
     7
370
    30
100
AcDbLine
 10
6.8874315598
 20
5.670919332
 30
0.0
 11
6.8874315598
 21
5.6650625596
 31
0.0
  0
LINE
  5
2B3
330
1F
100
AcDbEntity
  8
0
  6
Continuous
 62
     7
370
    30
100
AcDbLine
 10
6.9077918846
 20
5.6826743829
 30
0.0
 11
6.8874315598
 21
5.670919332
 31
0.0
  0
LINE
  5
2B4
330
1F
100
AcDbEntity
  8
0
  6
Continuous
 62
     7
370
    30
100
AcDbLine
 10
6.9077918846
 20
5.6885308619
 30
0.0
 11
6.9077918846
 21
5.6826743829
 31
0.0
  0
LINE
  5
2B5
330
1F
100
AcDbEntity
  8
0
  6
Continuous
 62
     7
370
    30
100
AcDbLine
 10
6.8874315598
 20
5.7002859861
 30
0.0
 11
6.9077918846
 21
5.6885308619
 31
0.0
  0
LINE
  5
2B6
330
1F
100
AcDbEntity
  8
0
  6
Continuous
 62
     7
370
    30
100
AcDbLine
 10
6.8874315598
 20
5.7061427584
 30
0.0
 11
6.8874315598
 21
5.7002859861
 31
0.0
  0
LINE
  5
2B7
330
1F
100
AcDbEntity
  8
0
  6
Continuous
 62
     7
370
    30
100
AcDbLine
 10
6.9077918846
 20
5.7178978093
 30
0.0
 11
6.8874315598
 21
5.7061427584
 31
0.0
  0
LINE
  5
2B8
330
1F
100
AcDbEntity
  8
0
  6
Continuous
 62
     7
370
    30
100
AcDbLine
 10
6.9077918846
 20
5.7237542883
 30
0.0
 11
6.9077918846
 21
5.7178978093
 31
0.0
  0
LINE
  5
2B9
330
1F
100
AcDbEntity
  8
0
  6
Continuous
 62
     7
370
    30
100
AcDbLine
 10
6.8874315598
 20
5.7355093392
 30
0.0
 11
6.9077918846
 21
5.7237542883
 31
0.0
  0
LINE
  5
2BA
330
1F
100
AcDbEntity
  8
0
  6
Continuous
 62
     7
370
    30
100
AcDbLine
 10
6.8874315598
 20
5.7413661848
 30
0.0
 11
6.8874315598
 21
5.7355093392
 31
0.0
  0
LINE
  5
2BB
330
1F
100
AcDbEntity
  8
0
  6
Continuous
 62
     7
370
    30
100
AcDbLine
 10
6.9077918846
 20
5.7531212357
 30
0.0
 11
6.8874315598
 21
5.7413661848
 31
0.0
  0
LINE
  5
2BC
330
1F
100
AcDbEntity
  8
0
  6
Continuous
 62
     7
370
    30
100
AcDbLine
 10
6.9077918846
 20
5.7589777147
 30
0.0
 11
6.9077918846
 21
5.7531212357
 31
0.0
  0
LINE
  5
2BD
330
1F
100
AcDbEntity
  8
0
  6
Continuous
 62
     7
370
    30
100
AcDbLine
 10
6.8874315598
 20
5.7707327656
 30
0.0
 11
6.9077918846
 21
5.7589777147
 31
0.0
  0
LINE
  5
2BE
330
1F
100
AcDbEntity
  8
0
  6
Continuous
 62
     7
370
    30
100
AcDbLine
 10
6.8874315598
 20
5.7765896113
 30
0.0
 11
6.8874315598
 21
5.7707327656
 31
0.0
  0
LINE
  5
2BF
330
1F
100
AcDbEntity
  8
0
  6
Continuous
 62
     7
370
    30
100
AcDbLine
 10
6.9077918846
 20
5.7883446621
 30
0.0
 11
6.8874315598
 21
5.7765896113
 31
0.0
  0
LINE
  5
2C0
330
1F
100
AcDbEntity
  8
0
  6
Continuous
 62
     7
370
    30
100
AcDbLine
 10
6.9077918846
 20
5.7942011412
 30
0.0
 11
6.9077918846
 21
5.7883446621
 31
0.0
  0
LINE
  5
2C1
330
1F
100
AcDbEntity
  8
0
  6
Continuous
 62
     7
370
    30
100
AcDbLine
 10
6.8874315598
 20
5.805956192
 30
0.0
 11
6.9077918846
 21
5.7942011412
 31
0.0
  0
LINE
  5
2C2
330
1F
100
AcDbEntity
  8
0
  6
Continuous
 62
     7
370
    30
100
AcDbLine
 10
7.0018617712
 20
5.805956192
 30
0.0
 11
6.8874315598
 21
5.805956192
 31
0.0
  0
ARC
  5
2C3
330
1F
100
AcDbEntity
  8
0
  6
Continuous
 62
     7
370
    30
100
AcDbCircle
 10
7.0018617512
 20
5.7439562212
 30
0.0
 40
0.0620000000000056
100
AcDbArc
 50
0.0
 51
90.0
  0
LINE
  5
2C4
330
1F
100
AcDbEntity
  8
0
  6
Continuous
 62
     7
370
    30
100
AcDbLine
 10
7.0638617483
 20
5.7423672466
 30
0.0
 11
7.0638617483
 21
5.7439562149
 31
0.0
  0
ARC
  5
2C5
330
1F
100
AcDbEntity
  8
0
  6
Continuous
 62
     7
370
    30
100
AcDbCircle
 10
7.0538617512
 20
5.7423672419
 30
0.0
 40
0.0099999999999901
100
AcDbArc
 50
246.7301760415
 51
360.0
  0
ARC
  5
2C6
330
1F
100
AcDbEntity
  8
0
  6
Continuous
 62
     7
370
    30
100
AcDbCircle
 10
7.0218617512
 20
5.6679562212
 30
0.0
 40
0.0710000000000112
100
AcDbArc
 50
66.7301760415
 51
232.4184423813
  0
ARC
  5
2C7
330
1F
100
AcDbEntity
  8
0
  6
Continuous
 62
     7
370
    30
100
AcDbCircle
 10
6.9663617512
 20
5.5958399956
 30
0.0
 40
0.0199999999999986
100
AcDbArc
 50
0.0
 51
52.4184423813
  0
LINE
  5
2C8
330
1F
100
AcDbEntity
  8
0
  6
Continuous
 62
     7
370
    30
100
AcDbLine
 10
6.986361777
 20
5.4309562241
 30
0.0
 11
6.986361777
 21
5.5958399926
 31
0.0
  0
LINE
  5
2C9
330
1F
100
AcDbEntity
  8
0
  6
Continuous
 62
     7
370
    30
100
AcDbLine
 10
6.6413617624
 20
5.5958399926
 30
0.0
 11
6.6413617624
 21
5.4309562241
 31
0.0
  0
ARC
  5
2CA
330
1F
100
AcDbEntity
  8
0
  6
Continuous
 62
     7
370
    30
100
AcDbCircle
 10
6.6613617512
 20
5.5958399956
 30
0.0
 40
0.0199999999999996
100
AcDbArc
 50
127.5815576188
 51
180.0
  0
ARC
  5
2CB
330
1F
100
AcDbEntity
  8
0
  6
Continuous
 62
     7
370
    30
100
AcDbCircle
 10
6.6058617512
 20
5.6679562212
 30
0.0
 40
0.0710000000000084
100
AcDbArc
 50
307.5815576188
 51
113.2698239585
  0
ARC
  5
2CC
330
1F
100
AcDbEntity
  8
0
  6
Continuous
 62
     7
370
    30
100
AcDbCircle
 10
6.5738617512
 20
5.7423672419
 30
0.0
 40
0.0099999999999927
100
AcDbArc
 50
180.0
 51
293.2698239585
  0
ARC
  5
2CD
330
1F
100
AcDbEntity
  8
0
  6
Continuous
 62
     7
370
    30
100
AcDbCircle
 10
6.6258617512
 20
5.7439562212
 30
0.0
 40
0.0620000000000021
100
AcDbArc
 50
90.0
 51
180.0
  0
LINE
  5
2CE
330
1F
100
AcDbEntity
  8
0
  6
Continuous
 62
     7
370
    30
100
AcDbLine
 10
6.7402610333
 20
5.7901227549
 30
0.0
 11
6.7402610333
 21
5.7959796006
 31
0.0
  0
LINE
  5
2CF
330
1F
100
AcDbEntity
  8
0
  6
Continuous
 62
     7
370
    30
100
AcDbLine
 10
6.7199007085
 20
5.7725112251
 30
0.0
 11
6.7199007085
 21
5.7783677041
 31
0.0
  0
LINE
  5
2D0
330
1F
100
AcDbEntity
  8
0
  6
Continuous
 62
     7
370
    30
100
AcDbLine
 10
6.7402610333
 20
5.7548993285
 30
0.0
 11
6.7402610333
 21
5.7607561742
 31
0.0
  0
LINE
  5
2D1
330
1F
100
AcDbEntity
  8
0
  6
Continuous
 62
     7
370
    30
100
AcDbLine
 10
6.7199007085
 20
5.7372877986
 30
0.0
 11
6.7199007085
 21
5.7431442776
 31
0.0
  0
LINE
  5
2D2
330
1F
100
AcDbEntity
  8
0
  6
Continuous
 62
     7
370
    30
100
AcDbLine
 10
6.7402610333
 20
5.7196759021
 30
0.0
 11
6.7402610333
 21
5.7255327478
 31
0.0
  0
LINE
  5
2D3
330
1F
100
AcDbEntity
  8
0
  6
Continuous
 62
     7
370
    30
100
AcDbLine
 10
6.7199007085
 20
5.7020643722
 30
0.0
 11
6.7199007085
 21
5.7079208512
 31
0.0
  0
LINE
  5
2D4
330
1F
100
AcDbEntity
  8
0
  6
Continuous
 62
     7
370
    30
100
AcDbLine
 10
6.7402610333
 20
5.6844524757
 30
0.0
 11
6.7402610333
 21
5.6903093213
 31
0.0
  0
LINE
  5
2D5
330
1F
100
AcDbEntity
  8
0
  6
Continuous
 62
     7
370
    30
100
AcDbLine
 10
6.7199007085
 20
5.6668409458
 30
0.0
 11
6.7199007085
 21
5.6726974248
 31
0.0
  0
LINE
  5
2D6
330
1F
100
AcDbEntity
  8
0
  6
Continuous
 62
     7
370
    30
100
AcDbLine
 10
6.7402610333
 20
5.6492290492
 30
0.0
 11
6.7402610333
 21
5.6550858949
 31
0.0
  0
LINE
  5
2D7
330
1F
100
AcDbEntity
  8
0
  6
Continuous
 62
     7
370
    30
100
AcDbLine
 10
6.7199007085
 20
5.6316175193
 30
0.0
 11
6.7199007085
 21
5.6374739984
 31
0.0
  0
LINE
  5
2D8
330
1F
100
AcDbEntity
  8
0
  6
Continuous
 62
     7
370
    30
100
AcDbLine
 10
6.7402610333
 20
5.6140056228
 30
0.0
 11
6.7402610333
 21
5.6198624685
 31
0.0
  0
LINE
  5
2D9
330
1F
100
AcDbEntity
  8
0
  6
Continuous
 62
     7
370
    30
100
AcDbLine
 10
6.7199007085
 20
5.5963940929
 30
0.0
 11
6.7199007085
 21
5.6022505719
 31
0.0
  0
LINE
  5
2DA
330
1F
100
AcDbEntity
  8
0
  6
Continuous
 62
     7
370
    30
100
AcDbLine
 10
6.7402610333
 20
5.5787822697
 30
0.0
 11
6.7402610333
 21
5.584639042
 31
0.0
  0
LINE
  5
2DB
330
1F
100
AcDbEntity
  8
0
  6
Continuous
 62
     7
370
    30
100
AcDbLine
 10
6.7199007085
 20
5.7783677041
 30
0.0
 11
6.7402610333
 21
5.7901227549
 31
0.0
  0
LINE
  5
2DC
330
1F
100
AcDbEntity
  8
0
  6
Continuous
 62
     7
370
    30
100
AcDbLine
 10
6.563861791
 20
5.7439562149
 30
0.0
 11
6.563861791
 21
5.7423672466
 31
0.0
  0
LINE
  5
2DD
330
1F
100
AcDbEntity
  8
0
  6
Continuous
 62
     7
370
    30
100
AcDbLine
 10
6.9077918846
 20
5.6533074354
 30
0.0
 11
6.9077918846
 21
5.6474509564
 31
0.0
  0
LINE
  5
2DE
330
1F
100
AcDbEntity
  8
0
  6
Continuous
 62
     7
370
    30
100
AcDbLine
 10
3.9863617399
 20
5.4309562241
 30
0.0
 11
3.6413617253
 21
5.4309562241
 31
0.0
  0
LINE
  5
2DF
330
1F
100
AcDbEntity
  8
0
  6
Continuous
 62
     7
370
    30
100
AcDbLine
 10
3.7229810758
 20
5.805956192
 30
0.0
 11
3.6258617311
 21
5.805956192
 31
0.0
  0
LINE
  5
2E0
330
1F
100
AcDbEntity
  8
0
  6
Continuous
 62
     7
370
    30
100
AcDbLine
 10
3.7402609962
 20
5.7959796006
 30
0.0
 11
3.7229810758
 21
5.805956192
 31
0.0
  0
LINE
  5
2E1
330
1F
100
AcDbEntity
  8
0
  6
Continuous
 62
     7
370
    30
100
AcDbLine
 10
3.7199006714
 20
5.7783677041
 30
0.0
 11
3.7402609962
 21
5.7901227549
 31
0.0
  0
LINE
  5
2E2
330
1F
100
AcDbEntity
  8
0
  6
Continuous
 62
     7
370
    30
100
AcDbLine
 10
3.7402609962
 20
5.7607561742
 30
0.0
 11
3.7199006714
 21
5.7725112251
 31
0.0
  0
LINE
  5
2E3
330
1F
100
AcDbEntity
  8
0
  6
Continuous
 62
     7
370
    30
100
AcDbLine
 10
3.7199006714
 20
5.7431442776
 30
0.0
 11
3.7402609962
 21
5.7548993285
 31
0.0
  0
LINE
  5
2E4
330
1F
100
AcDbEntity
  8
0
  6
Continuous
 62
     7
370
    30
100
AcDbLine
 10
3.7199006714
 20
5.7372877986
 30
0.0
 11
3.7199006714
 21
5.7431442776
 31
0.0
  0
LINE
  5
2E5
330
1F
100
AcDbEntity
  8
0
  6
Continuous
 62
     7
370
    30
100
AcDbLine
 10
3.7402609962
 20
5.7255327478
 30
0.0
 11
3.7199006714
 21
5.7372877986
 31
0.0
  0
LINE
  5
2E6
330
1F
100
AcDbEntity
  8
0
  6
Continuous
 62
     7
370
    30
100
AcDbLine
 10
3.7199006714
 20
5.7079208512
 30
0.0
 11
3.7402609962
 21
5.7196759021
 31
0.0
  0
LINE
  5
2E7
330
1F
100
AcDbEntity
  8
0
  6
Continuous
 62
     7
370
    30
100
AcDbLine
 10
3.7199006714
 20
5.7020643722
 30
0.0
 11
3.7199006714
 21
5.7079208512
 31
0.0
  0
LINE
  5
2E8
330
1F
100
AcDbEntity
  8
0
  6
Continuous
 62
     7
370
    30
100
AcDbLine
 10
3.7402609962
 20
5.6903093213
 30
0.0
 11
3.7199006714
 21
5.7020643722
 31
0.0
  0
LINE
  5
2E9
330
1F
100
AcDbEntity
  8
0
  6
Continuous
 62
     7
370
    30
100
AcDbLine
 10
3.7402609962
 20
5.6844524757
 30
0.0
 11
3.7402609962
 21
5.6903093213
 31
0.0
  0
LINE
  5
2EA
330
1F
100
AcDbEntity
  8
0
  6
Continuous
 62
     7
370
    30
100
AcDbLine
 10
3.7199006714
 20
5.6726974248
 30
0.0
 11
3.7402609962
 21
5.6844524757
 31
0.0
  0
LINE
  5
2EB
330
1F
100
AcDbEntity
  8
0
  6
Continuous
 62
     7
370
    30
100
AcDbLine
 10
3.7199006714
 20
5.6668409458
 30
0.0
 11
3.7199006714
 21
5.6726974248
 31
0.0
  0
LINE
  5
2EC
330
1F
100
AcDbEntity
  8
0
  6
Continuous
 62
     7
370
    30
100
AcDbLine
 10
3.7402609962
 20
5.6550858949
 30
0.0
 11
3.7199006714
 21
5.6668409458
 31
0.0
  0
LINE
  5
2ED
330
1F
100
AcDbEntity
  8
0
  6
Continuous
 62
     7
370
    30
100
AcDbLine
 10
3.7402609962
 20
5.6492290492
 30
0.0
 11
3.7402609962
 21
5.6550858949
 31
0.0
  0
LINE
  5
2EE
330
1F
100
AcDbEntity
  8
0
  6
Continuous
 62
     7
370
    30
100
AcDbLine
 10
3.7199006714
 20
5.6374739984
 30
0.0
 11
3.7402609962
 21
5.6492290492
 31
0.0
  0
LINE
  5
2EF
330
1F
100
AcDbEntity
  8
0
  6
Continuous
 62
     7
370
    30
100
AcDbLine
 10
3.7199006714
 20
5.6316175193
 30
0.0
 11
3.7199006714
 21
5.6374739984
 31
0.0
  0
LINE
  5
2F0
330
1F
100
AcDbEntity
  8
0
  6
Continuous
 62
     7
370
    30
100
AcDbLine
 10
3.7402609962
 20
5.6198624685
 30
0.0
 11
3.7199006714
 21
5.6316175193
 31
0.0
  0
LINE
  5
2F1
330
1F
100
AcDbEntity
  8
0
  6
Continuous
 62
     7
370
    30
100
AcDbLine
 10
3.7402609962
 20
5.6140056228
 30
0.0
 11
3.7402609962
 21
5.6198624685
 31
0.0
  0
LINE
  5
2F2
330
1F
100
AcDbEntity
  8
0
  6
Continuous
 62
     7
370
    30
100
AcDbLine
 10
3.7199006714
 20
5.6022505719
 30
0.0
 11
3.7402609962
 21
5.6140056228
 31
0.0
  0
LINE
  5
2F3
330
1F
100
AcDbEntity
  8
0
  6
Continuous
 62
     7
370
    30
100
AcDbLine
 10
3.7199006714
 20
5.5963940929
 30
0.0
 11
3.7199006714
 21
5.6022505719
 31
0.0
  0
LINE
  5
2F4
330
1F
100
AcDbEntity
  8
0
  6
Continuous
 62
     7
370
    30
100
AcDbLine
 10
3.7402609962
 20
5.584639042
 30
0.0
 11
3.7199006714
 21
5.5963940929
 31
0.0
  0
LINE
  5
2F5
330
1F
100
AcDbEntity
  8
0
  6
Continuous
 62
     7
370
    30
100
AcDbLine
 10
3.7402609962
 20
5.5787822697
 30
0.0
 11
3.7402609962
 21
5.584639042
 31
0.0
  0
LINE
  5
2F6
330
1F
100
AcDbEntity
  8
0
  6
Continuous
 62
     7
370
    30
100
AcDbLine
 10
3.7199006714
 20
5.5670271455
 30
0.0
 11
3.7402609962
 21
5.5787822697
 31
0.0
  0
LINE
  5
2F7
330
1F
100
AcDbEntity
  8
0
  6
Continuous
 62
     7
370
    30
100
AcDbLine
 10
3.7199006714
 20
5.5611706665
 30
0.0
 11
3.7199006714
 21
5.5670271455
 31
0.0
  0
LINE
  5
2F8
330
1F
100
AcDbEntity
  8
0
  6
Continuous
 62
     7
370
    30
100
AcDbLine
 10
3.7245019916
 20
5.5585141238
 30
0.0
 11
3.7199006714
 21
5.5611706665
 31
0.0
  0
ARC
  5
2F9
330
1F
100
AcDbEntity
  8
0
  6
Continuous
 62
     7
370
    30
100
AcDbCircle
 10
3.7148288162
 20
5.5559782434
 30
0.0
 40
0.0100000000000086
100
AcDbArc
 50
336.1596651702
 51
14.6901250941
  0
ARC
  5
2FA
330
1F
100
AcDbEntity
  8
0
  6
Continuous
 62
     7
370
    30
100
AcDbCircle
 10
3.7318617512
 20
5.5219562212
 30
0.0
 40
0.0310000000000006
100
AcDbArc
 50
104.7376174516
 51
270.0
  0
LINE
  5
2FB
330
1F
100
AcDbEntity
  8
0
  6
Continuous
 62
     7
370
    30
100
AcDbLine
 10
3.8958616787
 20
5.4909562043
 30
0.0
 11
3.7318617866
 21
5.4909562043
 31
0.0
  0
ARC
  5
2FC
330
1F
100
AcDbEntity
  8
0
  6
Continuous
 62
     7
370
    30
100
AcDbCircle
 10
3.8958617512
 20
5.5219562212
 30
0.0
 40
0.0310000000000006
100
AcDbArc
 50
270.0
 51
84.5504773049
  0
LINE
  5
2FD
330
1F
100
AcDbEntity
  8
0
  6
Continuous
 62
     7
370
    30
100
AcDbLine
 10
3.8874307894
 20
5.5593834805
 30
0.0
 11
3.8988058313
 21
5.5528161163
 31
0.0
  0
LINE
  5
2FE
330
1F
100
AcDbEntity
  8
0
  6
Continuous
 62
     7
370
    30
100
AcDbLine
 10
3.8874307894
 20
5.5652486127
 30
0.0
 11
3.8874307894
 21
5.5593834805
 31
0.0
  0
LINE
  5
2FF
330
1F
100
AcDbEntity
  8
0
  6
Continuous
 62
     7
370
    30
100
AcDbLine
 10
3.9077919942
 20
5.5828606559
 30
0.0
 11
3.9077919942
 21
5.5770041036
 31
0.0
  0
LINE
  5
300
330
1F
100
AcDbEntity
  8
0
  6
Continuous
 62
     7
370
    30
100
AcDbLine
 10
3.8874315227
 20
5.5946157068
 30
0.0
 11
3.9077919942
 21
5.5828606559
 31
0.0
  0
LINE
  5
301
330
1F
100
AcDbEntity
  8
0
  6
Continuous
 62
     7
370
    30
100
AcDbLine
 10
3.8874315227
 20
5.6004724791
 30
0.0
 11
3.8874315227
 21
5.5946157068
 31
0.0
  0
LINE
  5
302
330
1F
100
AcDbEntity
  8
0
  6
Continuous
 62
     7
370
    30
100
AcDbLine
 10
3.9077919942
 20
5.61222753
 30
0.0
 11
3.8874315227
 21
5.6004724791
 31
0.0
  0
LINE
  5
303
330
1F
100
AcDbEntity
  8
0
  6
Continuous
 62
     7
370
    30
100
AcDbLine
 10
3.9077919942
 20
5.618084009
 30
0.0
 11
3.9077919942
 21
5.61222753
 31
0.0
  0
LINE
  5
304
330
1F
100
AcDbEntity
  8
0
  6
Continuous
 62
     7
370
    30
100
AcDbLine
 10
3.8874315227
 20
5.6298391332
 30
0.0
 11
3.9077919942
 21
5.618084009
 31
0.0
  0
LINE
  5
305
330
1F
100
AcDbEntity
  8
0
  6
Continuous
 62
     7
370
    30
100
AcDbLine
 10
3.8874315227
 20
5.6356959056
 30
0.0
 11
3.8874315227
 21
5.6298391332
 31
0.0
  0
LINE
  5
306
330
1F
100
AcDbEntity
  8
0
  6
Continuous
 62
     7
370
    30
100
AcDbLine
 10
3.9077919942
 20
5.6474509564
 30
0.0
 11
3.8874315227
 21
5.6356959056
 31
0.0
  0
LINE
  5
307
330
1F
100
AcDbEntity
  8
0
  6
Continuous
 62
     7
370
    30
100
AcDbLine
 10
3.9077919942
 20
5.6533074354
 30
0.0
 11
3.9077919942
 21
5.6474509564
 31
0.0
  0
LINE
  5
308
330
1F
100
AcDbEntity
  8
0
  6
Continuous
 62
     7
370
    30
100
AcDbLine
 10
3.8874315227
 20
5.6650625596
 30
0.0
 11
3.9077919942
 21
5.6533074354
 31
0.0
  0
LINE
  5
309
330
1F
100
AcDbEntity
  8
0
  6
Continuous
 62
     7
370
    30
100
AcDbLine
 10
3.8874315227
 20
5.670919332
 30
0.0
 11
3.8874315227
 21
5.6650625596
 31
0.0
  0
LINE
  5
30A
330
1F
100
AcDbEntity
  8
0
  6
Continuous
 62
     7
370
    30
100
AcDbLine
 10
3.9077919942
 20
5.6826743829
 30
0.0
 11
3.8874315227
 21
5.670919332
 31
0.0
  0
LINE
  5
30B
330
1F
100
AcDbEntity
  8
0
  6
Continuous
 62
     7
370
    30
100
AcDbLine
 10
3.9077919942
 20
5.6885308619
 30
0.0
 11
3.9077919942
 21
5.6826743829
 31
0.0
  0
LINE
  5
30C
330
1F
100
AcDbEntity
  8
0
  6
Continuous
 62
     7
370
    30
100
AcDbLine
 10
3.8874315227
 20
5.7002859861
 30
0.0
 11
3.9077919942
 21
5.6885308619
 31
0.0
  0
LINE
  5
30D
330
1F
100
AcDbEntity
  8
0
  6
Continuous
 62
     7
370
    30
100
AcDbLine
 10
3.8874315227
 20
5.7061427584
 30
0.0
 11
3.8874315227
 21
5.7002859861
 31
0.0
  0
LINE
  5
30E
330
1F
100
AcDbEntity
  8
0
  6
Continuous
 62
     7
370
    30
100
AcDbLine
 10
3.9077919942
 20
5.7178978093
 30
0.0
 11
3.8874315227
 21
5.7061427584
 31
0.0
  0
LINE
  5
30F
330
1F
100
AcDbEntity
  8
0
  6
Continuous
 62
     7
370
    30
100
AcDbLine
 10
3.9077919942
 20
5.7237542883
 30
0.0
 11
3.9077919942
 21
5.7178978093
 31
0.0
  0
LINE
  5
310
330
1F
100
AcDbEntity
  8
0
  6
Continuous
 62
     7
370
    30
100
AcDbLine
 10
3.8874315227
 20
5.7355093392
 30
0.0
 11
3.9077919942
 21
5.7237542883
 31
0.0
  0
LINE
  5
311
330
1F
100
AcDbEntity
  8
0
  6
Continuous
 62
     7
370
    30
100
AcDbLine
 10
3.8874315227
 20
5.7413661848
 30
0.0
 11
3.8874315227
 21
5.7355093392
 31
0.0
  0
LINE
  5
312
330
1F
100
AcDbEntity
  8
0
  6
Continuous
 62
     7
370
    30
100
AcDbLine
 10
3.9077919942
 20
5.7531212357
 30
0.0
 11
3.8874315227
 21
5.7413661848
 31
0.0
  0
LINE
  5
313
330
1F
100
AcDbEntity
  8
0
  6
Continuous
 62
     7
370
    30
100
AcDbLine
 10
3.9077919942
 20
5.7589777147
 30
0.0
 11
3.9077919942
 21
5.7531212357
 31
0.0
  0
LINE
  5
314
330
1F
100
AcDbEntity
  8
0
  6
Continuous
 62
     7
370
    30
100
AcDbLine
 10
3.8874315227
 20
5.7707327656
 30
0.0
 11
3.9077919942
 21
5.7589777147
 31
0.0
  0
LINE
  5
315
330
1F
100
AcDbEntity
  8
0
  6
Continuous
 62
     7
370
    30
100
AcDbLine
 10
3.8874315227
 20
5.7765896113
 30
0.0
 11
3.8874315227
 21
5.7707327656
 31
0.0
  0
LINE
  5
316
330
1F
100
AcDbEntity
  8
0
  6
Continuous
 62
     7
370
    30
100
AcDbLine
 10
3.9077919942
 20
5.7883446621
 30
0.0
 11
3.8874315227
 21
5.7765896113
 31
0.0
  0
LINE
  5
317
330
1F
100
AcDbEntity
  8
0
  6
Continuous
 62
     7
370
    30
100
AcDbLine
 10
3.9077919942
 20
5.7942011412
 30
0.0
 11
3.9077919942
 21
5.7883446621
 31
0.0
  0
LINE
  5
318
330
1F
100
AcDbEntity
  8
0
  6
Continuous
 62
     7
370
    30
100
AcDbLine
 10
3.8874315227
 20
5.805956192
 30
0.0
 11
3.9077919942
 21
5.7942011412
 31
0.0
  0
LINE
  5
319
330
1F
100
AcDbEntity
  8
0
  6
Continuous
 62
     7
370
    30
100
AcDbLine
 10
4.0018617342
 20
5.805956192
 30
0.0
 11
3.8874315227
 21
5.805956192
 31
0.0
  0
ARC
  5
31A
330
1F
100
AcDbEntity
  8
0
  6
Continuous
 62
     7
370
    30
100
AcDbCircle
 10
4.0018617512
 20
5.7439562212
 30
0.0
 40
0.0620000000000065
100
AcDbArc
 50
0.0
 51
90.0
  0
LINE
  5
31B
330
1F
100
AcDbEntity
  8
0
  6
Continuous
 62
     7
370
    30
100
AcDbLine
 10
4.0638617113
 20
5.7423672466
 30
0.0
 11
4.0638617113
 21
5.7439562149
 31
0.0
  0
ARC
  5
31C
330
1F
100
AcDbEntity
  8
0
  6
Continuous
 62
     7
370
    30
100
AcDbCircle
 10
4.0538617512
 20
5.7423672419
 30
0.0
 40
0.0099999999999906
100
AcDbArc
 50
246.7301760415
 51
360.0
  0
ARC
  5
31D
330
1F
100
AcDbEntity
  8
0
  6
Continuous
 62
     7
370
    30
100
AcDbCircle
 10
4.0218617512
 20
5.6679562212
 30
0.0
 40
0.071000000000011
100
AcDbArc
 50
66.7301760415
 51
232.4184423813
  0
ARC
  5
31E
330
1F
100
AcDbEntity
  8
0
  6
Continuous
 62
     7
370
    30
100
AcDbCircle
 10
3.9663617512
 20
5.5958399956
 30
0.0
 40
0.0199999999999991
100
AcDbArc
 50
0.0
 51
52.4184423813
  0
LINE
  5
31F
330
1F
100
AcDbEntity
  8
0
  6
Continuous
 62
     7
370
    30
100
AcDbLine
 10
3.9863617399
 20
5.4309562241
 30
0.0
 11
3.9863617399
 21
5.5958399926
 31
0.0
  0
LINE
  5
320
330
1F
100
AcDbEntity
  8
0
  6
Continuous
 62
     7
370
    30
100
AcDbLine
 10
3.6413617253
 20
5.5958399926
 30
0.0
 11
3.6413617253
 21
5.4309562241
 31
0.0
  0
ARC
  5
321
330
1F
100
AcDbEntity
  8
0
  6
Continuous
 62
     7
370
    30
100
AcDbCircle
 10
3.6613617512
 20
5.5958399956
 30
0.0
 40
0.02
100
AcDbArc
 50
127.5815576188
 51
180.0
  0
ARC
  5
322
330
1F
100
AcDbEntity
  8
0
  6
Continuous
 62
     7
370
    30
100
AcDbCircle
 10
3.6058617512
 20
5.6679562212
 30
0.0
 40
0.0710000000000085
100
AcDbArc
 50
307.5815576188
 51
113.2698239585
  0
ARC
  5
323
330
1F
100
AcDbEntity
  8
0
  6
Continuous
 62
     7
370
    30
100
AcDbCircle
 10
3.5738617512
 20
5.7423672419
 30
0.0
 40
0.0099999999999927
100
AcDbArc
 50
180.0
 51
293.2698239585
  0
LINE
  5
324
330
1F
100
AcDbEntity
  8
0
  6
Continuous
 62
     7
370
    30
100
AcDbLine
 10
3.563861754
 20
5.7439562149
 30
0.0
 11
3.563861754
 21
5.7423672466
 31
0.0
  0
ARC
  5
325
330
1F
100
AcDbEntity
  8
0
  6
Continuous
 62
     7
370
    30
100
AcDbCircle
 10
3.6258617512
 20
5.7439562212
 30
0.0
 40
0.0620000000000029
100
AcDbArc
 50
90.0
 51
180.0
  0
LINE
  5
326
330
1F
100
AcDbEntity
  8
0
  6
Continuous
 62
     7
370
    30
100
AcDbLine
 10
3.7402609962
 20
5.7901227549
 30
0.0
 11
3.7402609962
 21
5.7959796006
 31
0.0
  0
LINE
  5
327
330
1F
100
AcDbEntity
  8
0
  6
Continuous
 62
     7
370
    30
100
AcDbLine
 10
3.7199006714
 20
5.7725112251
 30
0.0
 11
3.7199006714
 21
5.7783677041
 31
0.0
  0
LINE
  5
328
330
1F
100
AcDbEntity
  8
0
  6
Continuous
 62
     7
370
    30
100
AcDbLine
 10
3.7402609962
 20
5.7548993285
 30
0.0
 11
3.7402609962
 21
5.7607561742
 31
0.0
  0
LINE
  5
329
330
1F
100
AcDbEntity
  8
0
  6
Continuous
 62
     7
370
    30
100
AcDbLine
 10
3.7402609962
 20
5.7196759021
 30
0.0
 11
3.7402609962
 21
5.7255327478
 31
0.0
  0
LINE
  5
32A
330
1F
100
AcDbEntity
  8
0
  6
Continuous
 62
     7
370
    30
100
AcDbLine
 10
3.9077919942
 20
5.5770041036
 30
0.0
 11
3.8874307894
 21
5.5652486127
 31
0.0
  0
LINE
  5
32B
330
1F
100
AcDbEntity
  8
0
  6
Continuous
 62
     8
370
    30
100
AcDbLine
 10
6.563861791
 20
5.8839562176
 30
0.0
 11
6.6302024647
 21
5.8839562176
 31
0.0
  0
LINE
  5
32C
330
1F
100
AcDbEntity
  8
0
  6
Continuous
 62
     8
370
    30
100
AcDbLine
 10
6.6658053867
 20
5.8839562176
 30
0.0
 11
6.9619181527
 21
5.8839562176
 31
0.0
  0
LINE
  5
32D
330
1F
100
AcDbEntity
  8
0
  6
Continuous
 62
     8
370
    30
100
AcDbLine
 10
6.997520928
 20
5.8839562176
 30
0.0
 11
7.0638617483
 21
5.8839562176
 31
0.0
  0
LINE
  5
32E
330
1F
100
AcDbEntity
  8
0
  6
Continuous
 62
     8
370
    30
100
AcDbLine
 10
5.0638617542
 20
5.8839562176
 30
0.0
 11
5.1302025195
 21
5.8839562176
 31
0.0
  0
LINE
  5
32F
330
1F
100
AcDbEntity
  8
0
  6
Continuous
 62
     8
370
    30
100
AcDbLine
 10
5.1658053407
 20
5.8839562176
 30
0.0
 11
5.4619181616
 21
5.8839562176
 31
0.0
  0
LINE
  5
330
330
1F
100
AcDbEntity
  8
0
  6
Continuous
 62
     8
370
    30
100
AcDbLine
 10
5.4975209828
 20
5.8839562176
 30
0.0
 11
5.5638617481
 21
5.8839562176
 31
0.0
  0
LINE
  5
331
330
1F
100
AcDbEntity
  8
0
  6
Continuous
 62
     8
370
    30
100
AcDbLine
 10
3.563861754
 20
5.8839562176
 30
0.0
 11
3.6302025743
 21
5.8839562176
 31
0.0
  0
LINE
  5
332
330
1F
100
AcDbEntity
  8
0
  6
Continuous
 62
     8
370
    30
100
AcDbLine
 10
3.6658053496
 20
5.8839562176
 30
0.0
 11
3.9619181156
 21
5.8839562176
 31
0.0
  0
LINE
  5
333
330
1F
100
AcDbEntity
  8
0
  6
Continuous
 62
     8
370
    30
100
AcDbLine
 10
3.9975210376
 20
5.8839562176
 30
0.0
 11
4.0638617113
 21
5.8839562176
 31
0.0
  0
MTEXT
  5
335
330
1F
100
AcDbEntity
  8
FORMAT
100
AcDbMText
 10
4.5899907834
 20
4.0014529779
 30
0.0
 40
0.125
 41
0.0
 71
     1
 72
     1
  1
ML 38, 3 SLOT, 22
  7
SLDTEXTSTYLE0
 73
     1
 44
1.0
  0
ENDSEC
  0
SECTION
  2
OBJECTS
  0
DICTIONARY
  5
C
330
0
100
AcDbDictionary
281
     1
  3
ACAD_GROUP
350
D
  3
ACAD_LAYOUT
350
1A
  3
ACAD_MLINESTYLE
350
17
  3
ACAD_PLOTSETTINGS
350
19
  3
ACAD_PLOTSTYLENAME
350
E
  3
ACAD_SCALELIST
350
47
  0
DICTIONARY
  5
D
102
{ACAD_REACTORS
330
C
102
}
330
C
100
AcDbDictionary
281
     1
  0
DICTIONARY
  5
1A
102
{ACAD_REACTORS
330
C
102
}
330
C
100
AcDbDictionary
281
     1
  3
Layout1
350
1E
  3
Layout2
350
26
  3
Model
350
22
  0
DICTIONARY
  5
17
102
{ACAD_REACTORS
330
C
102
}
330
C
100
AcDbDictionary
281
     1
  3
Standard
350
18
  0
DICTIONARY
  5
19
102
{ACAD_REACTORS
330
C
102
}
330
C
100
AcDbDictionary
281
     1
  0
ACDBDICTIONARYWDFLT
  5
E
102
{ACAD_REACTORS
330
C
102
}
330
C
100
AcDbDictionary
281
     1
  3
Normal
350
F
100
AcDbDictionaryWithDefault
340
F
  0
DICTIONARY
  5
47
102
{ACAD_REACTORS
330
C
102
}
330
C
100
AcDbDictionary
281
     1
  3
A0
350
48
  3
A1
350
49
  3
A2
350
4A
  3
A3
350
4B
  3
A4
350
4C
  3
A5
350
4D
  3
A6
350
4E
  3
A7
350
4F
  3
A8
350
50
  3
A9
350
51
  3
B0
350
52
  3
B1
350
53
  3
B2
350
54
  3
B3
350
55
  3
B4
350
56
  3
B5
350
57
  3
B6
350
58
  3
B7
350
59
  3
B8
350
5A
  3
B9
350
5B
  3
C0
350
5C
  3
C1
350
5D
  3
C2
350
5E
  3
C3
350
5F
  3
C4
350
60
  3
C5
350
61
  3
C6
350
62
  3
C7
350
63
  3
C8
350
64
  3
C9
350
65
  3
D0
350
66
  3
D1
350
67
  3
D2
350
68
  0
LAYOUT
  5
1E
102
{ACAD_REACTORS
330
1A
102
}
330
1A
100
AcDbPlotSettings
  1

  2
none_device
  4

  6

 40
0.0
 41
0.0
 42
0.0
 43
0.0
 44
0.0
 45
0.0
 46
0.0
 47
0.0
 48
0.0
 49
0.0
140
0.0
141
0.0
142
1.0
143
1.0
 70
   688
 72
     0
 73
     0
 74
     5
  7

 75
    16
147
1.0
148
0.0
149
0.0
100
AcDbLayout
  1
Layout1
 70
     1
 71
     1
 10
0.0
 20
0.0
 11
12.0
 21
9.0
 12
0.0
 22
0.0
 32
0.0
 14
1.0000000000E+20
 24
1.0000000000E+20
 34
1.0000000000E+20
 15
-1.0000000000E+20
 25
-1.0000000000E+20
 35
-1.0000000000E+20
146
0.0
 13
0.0
 23
0.0
 33
0.0
 16
1.0
 26
0.0
 36
0.0
 17
0.0
 27
1.0
 37
0.0
 76
     0
330
1B
  0
LAYOUT
  5
26
102
{ACAD_REACTORS
330
1A
102
}
330
1A
100
AcDbPlotSettings
  1

  2
none_device
  4

  6

 40
0.0
 41
0.0
 42
0.0
 43
0.0
 44
0.0
 45
0.0
 46
0.0
 47
0.0
 48
0.0
 49
0.0
140
0.0
141
0.0
142
1.0
143
1.0
 70
   688
 72
     0
 73
     0
 74
     5
  7

 75
    16
147
1.0
148
0.0
149
0.0
100
AcDbLayout
  1
Layout2
 70
     1
 71
     2
 10
0.0
 20
0.0
 11
0.0
 21
0.0
 12
0.0
 22
0.0
 32
0.0
 14
0.0
 24
0.0
 34
0.0
 15
0.0
 25
0.0
 35
0.0
146
0.0
 13
0.0
 23
0.0
 33
0.0
 16
1.0
 26
0.0
 36
0.0
 17
0.0
 27
1.0
 37
0.0
 76
     0
330
23
  0
LAYOUT
  5
22
102
{ACAD_REACTORS
330
1A
102
}
330
1A
100
AcDbPlotSettings
  1

  2
none_device
  4
Letter_(8.50_x_11.00_Inches)
  6

 40
6.35
 41
6.35
 42
6.35000508
 43
6.35000508
 44
215.9
 45
279.4
 46
0.0
 47
0.0
 48
0.0
 49
0.0
140
0.0
141
0.0
142
1.0
143
1.0
 70
  1712
 72
     0
 73
     0
 74
     0
  7

 75
     0
147
1.0
148
0.0
149
0.0
100
AcDbLayout
  1
Model
 70
     1
 71
     0
 10
0.0
 20
0.0
 11
11.0
 21
8.5
 12
0.0
 22
0.0
 32
0.0
 14
0.0
 24
0.0
 34
0.0
 15
11.0
 25
8.5
 35
0.0
146
0.0
 13
0.0
 23
0.0
 33
0.0
 16
1.0
 26
0.0
 36
0.0
 17
0.0
 27
1.0
 37
0.0
 76
     0
330
1F
331
29
  0
MLINESTYLE
  5
18
102
{ACAD_REACTORS
330
17
102
}
330
17
100
AcDbMlineStyle
  2
Standard
 70
     0
  3

 62
   256
 51
90.0
 52
90.0
 71
     2
 49
0.5
 62
   256
  6
BYLAYER
 49
-0.5
 62
   256
  6
BYLAYER
  0
ACDBPLACEHOLDER
  5
F
102
{ACAD_REACTORS
330
E
102
}
330
E
  0
SCALE
  5
48
102
{ACAD_REACTORS
330
47
102
}
330
47
100
AcDbScale
 70
     0
300
1:1
140
1.0
141
1.0
290
     1
  0
SCALE
  5
49
102
{ACAD_REACTORS
330
47
102
}
330
47
100
AcDbScale
 70
     0
300
1:2
140
1.0
141
2.0
290
     0
  0
SCALE
  5
4A
102
{ACAD_REACTORS
330
47
102
}
330
47
100
AcDbScale
 70
     0
300
1:4
140
1.0
141
4.0
290
     0
  0
SCALE
  5
4B
102
{ACAD_REACTORS
330
47
102
}
330
47
100
AcDbScale
 70
     0
300
1:5
140
1.0
141
5.0
290
     0
  0
SCALE
  5
4C
102
{ACAD_REACTORS
330
47
102
}
330
47
100
AcDbScale
 70
     0
300
1:8
140
1.0
141
8.0
290
     0
  0
SCALE
  5
4D
102
{ACAD_REACTORS
330
47
102
}
330
47
100
AcDbScale
 70
     0
300
1:10
140
1.0
141
10.0
290
     0
  0
SCALE
  5
4E
102
{ACAD_REACTORS
330
47
102
}
330
47
100
AcDbScale
 70
     0
300
1:16
140
1.0
141
16.0
290
     0
  0
SCALE
  5
4F
102
{ACAD_REACTORS
330
47
102
}
330
47
100
AcDbScale
 70
     0
300
1:20
140
1.0
141
20.0
290
     0
  0
SCALE
  5
50
102
{ACAD_REACTORS
330
47
102
}
330
47
100
AcDbScale
 70
     0
300
1:30
140
1.0
141
30.0
290
     0
  0
SCALE
  5
51
102
{ACAD_REACTORS
330
47
102
}
330
47
100
AcDbScale
 70
     0
300
1:40
140
1.0
141
40.0
290
     0
  0
SCALE
  5
52
102
{ACAD_REACTORS
330
47
102
}
330
47
100
AcDbScale
 70
     0
300
1:50
140
1.0
141
50.0
290
     0
  0
SCALE
  5
53
102
{ACAD_REACTORS
330
47
102
}
330
47
100
AcDbScale
 70
     0
300
1:100
140
1.0
141
100.0
290
     0
  0
SCALE
  5
54
102
{ACAD_REACTORS
330
47
102
}
330
47
100
AcDbScale
 70
     0
300
2:1
140
2.0
141
1.0
290
     0
  0
SCALE
  5
55
102
{ACAD_REACTORS
330
47
102
}
330
47
100
AcDbScale
 70
     0
300
4:1
140
4.0
141
1.0
290
     0
  0
SCALE
  5
56
102
{ACAD_REACTORS
330
47
102
}
330
47
100
AcDbScale
 70
     0
300
8:1
140
8.0
141
1.0
290
     0
  0
SCALE
  5
57
102
{ACAD_REACTORS
330
47
102
}
330
47
100
AcDbScale
 70
     0
300
10:1
140
10.0
141
1.0
290
     0
  0
SCALE
  5
58
102
{ACAD_REACTORS
330
47
102
}
330
47
100
AcDbScale
 70
     0
300
100:1
140
100.0
141
1.0
290
     0
  0
SCALE
  5
59
102
{ACAD_REACTORS
330
47
102
}
330
47
100
AcDbScale
 70
     0
300
1/128" = 1'-0"
140
0.0078125
141
12.0
290
     0
  0
SCALE
  5
5A
102
{ACAD_REACTORS
330
47
102
}
330
47
100
AcDbScale
 70
     0
300
1/64" = 1'-0"
140
0.015625
141
12.0
290
     0
  0
SCALE
  5
5B
102
{ACAD_REACTORS
330
47
102
}
330
47
100
AcDbScale
 70
     0
300
1/32" = 1'-0"
140
0.03125
141
12.0
290
     0
  0
SCALE
  5
5C
102
{ACAD_REACTORS
330
47
102
}
330
47
100
AcDbScale
 70
     0
300
1/16" = 1'-0"
140
0.0625
141
12.0
290
     0
  0
SCALE
  5
5D
102
{ACAD_REACTORS
330
47
102
}
330
47
100
AcDbScale
 70
     0
300
3/32" = 1'-0"
140
0.09375
141
12.0
290
     0
  0
SCALE
  5
5E
102
{ACAD_REACTORS
330
47
102
}
330
47
100
AcDbScale
 70
     0
300
1/8" = 1'-0"
140
0.125
141
12.0
290
     0
  0
SCALE
  5
5F
102
{ACAD_REACTORS
330
47
102
}
330
47
100
AcDbScale
 70
     0
300
3/16" = 1'-0"
140
0.1875
141
12.0
290
     0
  0
SCALE
  5
60
102
{ACAD_REACTORS
330
47
102
}
330
47
100
AcDbScale
 70
     0
300
1/4" = 1'-0"
140
0.25
141
12.0
290
     0
  0
SCALE
  5
61
102
{ACAD_REACTORS
330
47
102
}
330
47
100
AcDbScale
 70
     0
300
3/8" = 1'-0"
140
0.375
141
12.0
290
     0
  0
SCALE
  5
62
102
{ACAD_REACTORS
330
47
102
}
330
47
100
AcDbScale
 70
     0
300
1/2" = 1'-0"
140
0.5
141
12.0
290
     0
  0
SCALE
  5
63
102
{ACAD_REACTORS
330
47
102
}
330
47
100
AcDbScale
 70
     0
300
3/4" = 1'-0"
140
0.75
141
12.0
290
     0
  0
SCALE
  5
64
102
{ACAD_REACTORS
330
47
102
}
330
47
100
AcDbScale
 70
     0
300
1" = 1'-0"
140
1.0
141
12.0
290
     0
  0
SCALE
  5
65
102
{ACAD_REACTORS
330
47
102
}
330
47
100
AcDbScale
 70
     0
300
1-1/2" = 1'-0"
140
1.5
141
12.0
290
     0
  0
SCALE
  5
66
102
{ACAD_REACTORS
330
47
102
}
330
47
100
AcDbScale
 70
     0
300
3" = 1'-0"
140
3.0
141
12.0
290
     0
  0
SCALE
  5
67
102
{ACAD_REACTORS
330
47
102
}
330
47
100
AcDbScale
 70
     0
300
6" = 1'-0"
140
6.0
141
12.0
290
     0
  0
SCALE
  5
68
102
{ACAD_REACTORS
330
47
102
}
330
47
100
AcDbScale
 70
     0
300
1'-0" = 1'-0"
140
12.0
141
12.0
290
     0
  0
ENDSEC
  0
EOF
